Guitar Tabs, Chords and Lyrics


Karsey Street    Poison The Well



Artist: Poison The Well
Title: Karsey Streey
Tabbed by Liam Murphy (johncusackandpoppunk@msn.com)

Bass: 10, Mid: 0, Treble: 10. Heavy distortion. Palm-mute all the way through.


C |-----------------------------------||
G |-----------------------------------||
D#|-----------------------------------||
A#|-----------------------------------||
F |-0-0--0-0-0--0-0--0-0--0-0-0--0-0--||
A#|-0-0--0-0-0--0-0--0-0--0-0-0--0-0--||

C |-----------------------------------||
G |-----------------------------------||
D#|-----------------------------------||
A#|-----------------------------------||
F |-0-0--0-0-0--0-0--0-0--0-0-0--0-0--||
A#|-0-0--0-0-0--0-0--0-0--0-0-0--0-0--||

C |-----------------------------------||
G |-----------------------------------||
D#|-----------------------------------||
A#|-----------------------------------||
F |-0-0--0-0-0--0-0--0-0--0-0-0--0-0--||
A#|-0-0--0-0-0--0-0--0-0--0-0-0--0-0--||

C |-----------------------------------||
G |-----------------------------------||
D#|-----------------------------------||
A#|-----------------------------------||
F |-0-0--0-0-0--0-0--0-0--0-0-0--0-0--||
A#|-0-0--0-0-0--0-0--0-0--0-0-0--0-0--||

C |-----------------------------------||
G |-----------------------------------||
D#|-----------------------------------||
A#|-----------------------------------||
F |-0-0--0-0-0--0-0--0-0--------------||


Important: The song above is NOT stored on the Chordie server. The original song is hosted at www.xguitar.com. Chordie works as a search engine and provides on-the-fly formatting. Chordie does not index songs against artists'/composers' will. To remove this song please click here.

This song is displayed as text-only. Transposing and tuning is only available for chordpro-songs.

Login - add to songbook

Rating click stars to rate

Layout
Accuracy

SHARE PAGE  




You need to log in to post comments