Chordie logo


Contact    Police



Artist: The Police
Song: Contact
Album: Regatta de Blanc (1979)
Tuning: E-A-D-G-B-e

Intro:
e|------------------|
B|--------------9~--|
G|---------7--------|
D|------------9-----|
A|--7h9h10----------|
E|------------------| (x4)


Verse: rest


Chorus:
e|------------------|
B|--------------9~--|
G|---------7--------|
D|------------9-----|
A|--7h9h10----------|
E|------------------| (x4)


Verse: rest


Break:
      Guitar 1:
e|------------------------------------------------------------------------|
B|------------------------------------------------------------------------|
G|----9------9------------------------------------------------------------|
D|---------------------9-------9---------10-----10------------------------|
A|--7---7-10---7------------10----------------7------------12----9-12-----|
E|------------------10---10------10----8----8------8----10----10------10--| (x4)

e|------|
B|------|
G|------|
D|--7~--|
A|--7~--|
E|--5~--|

      Guitar 2:
e|-----------------------------7--|
B|--9---------------------7-------|
G|-----9--7---------9--7-----9----|
D|-----------9--------------------|
A|--------------------------------|
E|--------------------------------| (x3)

e|------------------------------------|
B|--9---------------------7------10~--|
G|-----9--7---------9--7-----9-9------|
D|-----------9------------------------|
A|------------------------------------|
E|------------------------------------|


Verse:
   at 1:10
e|-----------|
B|------12~--|
G|--/11------|
D|-----------|
A|-----------|
E|-----------|


Chorus:
e|------------------|
B|--------------9~--|
G|---------7--------|
D|------------9-----|
A|--7h9h10----------|
E|------------------| (x4)


Verse: rest


Outro:
e|------------------------------------------------------------------------|
B|------------------------------------------------------------------------|
G|----9------9------------------------------------------------------------|
D|---------------------9-------9---------10-----10------------------------|
A|--7---7-10---7------------10----------------7------------12----9-12-----|


Important: The song above is NOT stored on the Chordie server. The original song is hosted at www.xguitar.com. Chordie works as a search engine and provides on-the-fly formatting. Chordie does not index songs against artists/composers will. To remove this song please click here.

This song is displayed as text-only. Transposing and tuning is only available for chordpro-songs.

Login - add to songbook

Rating click stars to rate

Layout
Accuracy

SHARE PAGE  




You need to log in to post comments