Guitar Tabs, Chords and Lyrics


The End of Everything    Powerman 5000



Powerman 5000 - The End Of Everything
Submitted By: Don Tiver
EMail: spineripfate@hotmail.com
Album: Anyone For Doomsday?
Tabbed by DangerIsGo

Tune Down 1/2 Step
(Eb, Ab, Db, Gb, Bb, Eb)
The only way to get deep sound is with
MXR Blue Box that M.33 uses.


Main Riff (Play as many times as needed)
Db--------------------------------------------3-3-3-3----------
Ab---------------------------4---------------------------------
Eb-5--5--5-3-5-5--5--5-5-3-5---5--5--5-3-5-5-----------4-4-4-4-

Db--------------------------------------------3-3-3-3----------
Ab---------------------------4---------------------------------
Eb-5--5--5-3-5-5--5--5-5-3-5---5--5--5-3-5-5-----------6-6-6-6-


Chorus x2:
Db-7----7-7-7-5-7----7-7-7-5-7----7-7-7-5-7-7---5--7-7-
Ab-7----7-7-7-5-7----7-7-7-5-7----7-7-7-5-7-7---5--7-7-
Eb-5----5-5-5-3-5----5-5-5-3-5----5-5-5-3-5-5---3--5-5-


Important: The song above is NOT stored on the Chordie server. The original song is hosted at www.xguitar.com. Chordie works as a search engine and provides on-the-fly formatting. Chordie does not index songs against artists'/composers' will. To remove this song please click here.

This song is displayed as text-only. Transposing and tuning is only available for chordpro-songs.

Login - add to songbook

Rating click stars to rate

Layout
Accuracy

SHARE PAGE  




You need to log in to post comments