Guitar Tabs, Chords and Lyrics


Wake Up    Powerman 5000



Artist:Powerman 5000
Song:"Wake Up"
Album:Anyone For Doomsday
Tabed By: 123AFI


Intro X4
e|----------------------------------------------------------
B|----------------------------------------------------------
G|-----------------------------------------------------------
D|--2-2--5-5-5-7--2-2--5-7--2-2-----------------------------
A|--2-2--5-5-5-7--2-2--5-7--2-2-----------------------------
E|--0-0--3-3-3-5--0-0--3-5--0-0-----------------------------

Chorus X2
e|-----------------------------------------------------------
B|-----------------------------------------------------------
G|-----------------------------------------------------------
D|--2-2--5-5-5-7--2-2--5-7--2-2-----------------------------
A|--2-2--5-5-5-7--2-2--5-7--2-2-----------------------------
E|--0-0--3-3-3-5--0-0--3-5--0-0-----------------------------

Verse X4
e|-----------------------------------------------------------
B|----------------------------------------------------------
G|----------------------------------------------------------
D|--2----------5---------7----------8--5--------------------
A|--2----------5---------7----------8--5--------------------
E|--0----------3---------5----------6--3--------------------

Pre Chorus X1
e|-----------------------------------------------------------
B|------------------------------------------------------------
G|-----------------------------------------------------------
D|----2-2-2--5-5-5--7-7-7-------------------------------------
A|----2-2-2--5-5-5--7-7-7-------------------------------------
E|----0-0-0--3-3-3--5-5-5-------------------------------------

Chorus X2
e|-----------------------------------------------------------
B|-----------------------------------------------------------
G|-----------------------------------------------------------
D|--2-2--5-5-5-7--2-2--5-7--2-2-----------------------------
A|--2-2--5-5-5-7--2-2--5-7--2-2-----------------------------


Important: The song above is NOT stored on the Chordie server. The original song is hosted at www.xguitar.com. Chordie works as a search engine and provides on-the-fly formatting. Chordie does not index songs against artists'/composers' will. To remove this song please click here.

This song is displayed as text-only. Transposing and tuning is only available for chordpro-songs.

Login - add to songbook

Rating click stars to rate

Layout
Accuracy

SHARE PAGE  




You need to log in to post comments