Guitar Tabs, Chords and Lyrics


What the World Does    Powerman 5000



Song: What the World Does
Artist: Powerman 5000
Tuning: Low to High: (C, G, C, F, A, D)
Tabbed by: David Michalek
Comments: if you dont know what this is, its from the unreleased PM5K
album Anyone for Doomsday? that was never released.

Intro/Chorus

D | ----------------------------------------------------
A | ----------------------------------------------------
F | ----------------------------------------------------
C | ---10-10-10-10---13-13-13-13---7-7-7-7---8-8-8-8----  x2
G | ---10-10-10-10---13-13-13-13---7-7-7-7---8-8-8-8----
C | ---10-10-10-10---13-13-13-13---7-7-7-7---8-8-8-8----

D | ------------------------------------------------------
A | ------------------------------------------------------
F | ------------------------------------------------------
C | ---6-6-6-6---9-9-9-9---3-3-3-3---4-4-4-4-------------- Back to top
G | ---6-6-6-6---9-9-9-9---3-3-3-3---4-4-4-4--------------
C | ---6-6-6-6---9-9-9-9---3-3-3-3---4-4-4-4--------------
       . . . .   . . . .   . . . .   . . . .

Verse (Guitar 1)

D | --------------------------------------------------------
A | --------------------------------------------------------
F | --------------------------------------------------------
C | ---3-1-3-1---3-1-3-1---10---3-1-3-1---3-1-3-1---5-3-1---
G | ---3-1-3-1---3-1-3-1---10---3-1-3-1---3-1-3-1---5-3-1---
C | ---3-1-3-1---3-1-3-1---10---3-1-3-1---3-1-3-1---5-3-1---

Verse (Guitar 2)

D | ---20-18-17-18---20-18-17-18----
A | --------------------------------
F | --------------------------------
C | --------------------------------  x2
G | --------------------------------
C | --------------------------------

Outro

D | -------------------------------------
A | -------------------------------------
F | -------------------------------------
C | ---3-1-3-1---3-1-3-1-----------------   x4
G | ---3-1-3-1---3-1-3-1-----------------


Important: The song above is NOT stored on the Chordie server. The original song is hosted at www.xguitar.com. Chordie works as a search engine and provides on-the-fly formatting. Chordie does not index songs against artists'/composers' will. To remove this song please click here.

This song is displayed as text-only. Transposing and tuning is only available for chordpro-songs.

Login - add to songbook

Rating click stars to rate

Layout
Accuracy

SHARE PAGE  




You need to log in to post comments