Chordie logo

Automatic    Powerman 5000



Album - Tonight the Stars Revolt
Tuning- Drop D (e B G D A D)

Into Riff

E-| ------------------------------------------------------------
B-| ------------------------------------------------------------
G-| ------------------------------------------------------------
D-| 0-2-2-5-2---2-0--2-2-------0-2-2-5-2---2-0--2-2---7-6
A-| 0-2-2-5-2---2-0--2-2-------0-2-2-5-2---2-0--2-2---7-6
D-| 0-2-2-5-2---2-0--2-2-------0-2-2-5-2---2-0--2-2---7-6

Pre verse
E-|-----------------------------------
B-|-----------------------------------
G-|-8/14-13-10-12-12---8/14-13-11
D-|-----------------------------------
A-|-----------------------------------
D-|-----------------------------------
Verse (Palm Muted)			Last Time

E-|----------------------------		E-|-----
B-|----------------------------		B-|-----
G-|----------------------------		G-|-----
D-|-0-0----0-0----0-0----0-0-	D-|-7-6-
A-|-0-0----0-0----0-0----0-0-	A-|-7-6-
D-|-0-0----0-0----0-0----0-0- 	D-|-7-6-
Chorus
E-| ------------------------------------------------------------
B-| ------------------------------------------------------------
G-| ------------------------------------------------------------
D-| 0-2-2-5-2---2-0--2-2-------0-2-2-5-2---2-0--2-2---7-6
A-| 0-2-2-5-2---2-0--2-2-------0-2-2-5-2---2-0--2-2---7-6
D-| 0-2-2-5-2---2-0--2-2-------0-2-2-5-2---2-0--2-2---7-6

Pre verse
E-|-----------------------------------
B-|-----------------------------------
G-|-8/14-13-10-12-12---8/14-13-11
D-|-----------------------------------
A-|-----------------------------------
D-|-----------------------------------
Ending
X = Palm Mute
E-| ------------------------------------------------------------
B-| ------------------------------------------------------------
G-| ------------------------------------------------------------
D-| 0-2-2-5-2---2-0--2-2-xxxx-0-2-2-5-2---2-0--2-2-xx-7-6
A-| 0-2-2-5-2---2-0--2-2-xxxx-0-2-2-5-2---2-0--2-2-xx-7-6
D-| 0-2-2-5-2---2-0--2-2-xxxx-0-2-2-5-2---2-0--2-2-xx-7-6


Important: The song above is NOT stored on the Chordie server. The original song is hosted at www.xguitar.com. Chordie works as a search engine and provides on-the-fly formatting. Chordie does not index songs against artists/composers will. To remove this song please click here.

This song is displayed as text-only. Transposing and tuning is only available for chordpro-songs.

Login - add to songbook

Rating click stars to rate

Layout
Accuracy

SHARE PAGE  

You need to log in to post comments