Guitar Tabs, Chords and Lyrics


Tonight the Stars Revolt!    Powerman 5000



Author/Artist: Powerman 5000
Title: Tonight The Stars Revolt
Transcribed by: Brad Porter
Email: Bradisgod7@hotmail.com

drop D then a half step down

I tabbed this in 5 min so there may be a few errors I will correct
later.  Ill also add the rest of the song later too
anyway enjoy

b= 1/4 bend

Palm mute the open notes on the E String (Eb)

------------------------------------------------------------------------------
-----b13-----------------b13--------------b13-------------13------------------
-------x-------10----------x----------------x------10------x------------------
-----b10--------x--------b10--5-4-3-------b10-------x-----10------------------
----------------8-------------5-4-3-----------------8-------------------------
-0--0-----0--0------0--0------5-4-3--0---0-----0--0---0-0---------------------
                                                                              

------------------------------------------------------------------------------
------------------------------------------------------------------------------
------------------------------------------------------------------------------
-5-4-3---5-4-3---3--3-3-3-3-3------5-4-3--5-4-3---5-4-3-----------------------
-5-4-3---5-4-3---3--3-3-3-3-3------5-4-3--5-4-3---5-4-3-----------------------
-5-4-3---5-4-3---3--3-3-3-3-3------5-4-3--5-4-3---5-4-3-----------------------
  up and down strokes palm muted  this is played inbetween parts              

------------------------------------------------------------------------------
------------------------------------------------------------------------------
------------------------------------------------------------------------------
------------------------------------------------------------------------------
------------------------------------------------------------------------------


Important: The song above is NOT stored on the Chordie server. The original song is hosted at www.xguitar.com. Chordie works as a search engine and provides on-the-fly formatting. Chordie does not index songs against artists'/composers' will. To remove this song please click here.

This song is displayed as text-only. Transposing and tuning is only available for chordpro-songs.

Login - add to songbook

Rating click stars to rate

Layout
Accuracy

SHARE PAGE  




You need to log in to post comments