Guitar Tabs, Chords and Lyrics


When Worlds Collide    Powerman 5000



 ----------------------------------------------------------------------------------------------

	     SONG: When Worlds Collide
	     BAND: Powerman 5000
	    ALBUM: Tonight the Stars Revolt!t!
   TRANSCRIBED BY: Unknown
	     DATE: Unknown

 ----------------------------------------------------------------------------------------------

	TUNING: tune your guitar down half a step (Eb,Ab,Db,Gb,Bb,Eb)

 
     1ST VERSE: 

     Guitar comes in at 0:27

   Eb|-----------------|
   Bb|-----------------|
   Gb|--6--6--6--6-----|
   Db|--5--5--5--5-----|
   Ab|--4--4--4--4-----|
   Eb|--------------3--|
     1ST CHORUS:

     Play this three times

   Eb|----------------------|
   Bb|----------------------|
   Gb|----------------------|
   Db|----------------------|
   Ab|----------------------|
   Eb|--3----3--1--3--1--3--|

     Then play this once

   Eb|----------------------|
   Bb|----------------------|
   Gb|----------------------|
   Db|----------------------|
   Ab|----------------------|
   Eb|--3----3--1--3--6-----|

     2ND & 3RD VERSES:

   Eb|-----------------|
   Bb|-----------------|
   Gb|--6--6--6--6-----|
   Db|--5--5--5--5-----|
   Ab|--4--4--4--4-----|
   Eb|--------------3--|

     2ND CHORUS:

     Play this three times

   Eb|----------------------|
   Bb|----------------------|
   Gb|----------------------|
   Db|----------------------|
   Ab|----------------------|
   Eb|--3----3--1--3--1--3--|

     Then play this once

   Eb|----------------------|
   Bb|----------------------|
   Gb|----------------------| (the sixth fret note is replaced by
   Db|----------------------| an open Eb the second time around)
   Ab|----------------------|
   Eb|--3----3--1--3--6-----|

     INTERLUDE:
    
     Play this 3 times

   Eb|-------------------------------|
   Bb|-------------------------------|
   Gb|-------------------------------|
   Db|-------------------------------|
   Ab|--7-7-7-7-7---------5-5-5-5-5--|
   Eb|-------------------------------|
        pm.......         .........

     Then play this 3 times

   Eb|----------------------------------------------------------|
   Bb|----------------------------------------------------------|
   Gb|----------------------------------------------------------|
   Db|----------------------------------------------------------|
   Ab|--4-4-4-4-4---------3-3-3-3-3-----------------------------|
   Eb|--------------------------------------3--1--3--1--3----3--|
        pm.......         .........

     Finally play this once

   Eb|------------------------------------------|
   Bb|------------------------------------------|
   Gb|------------------------------------------|
   Db|------------------------------------------|
   Ab|------------------------------------------|
   Eb|--x--3--1--3/6\----3-----------1--3----3--|

     3RD CHORUS:

     Play this three times

   Eb|----------------------|
   Bb|----------------------|
   Gb|----------------------|
   Db|----------------------|
   Ab|--5----5--3--5--3--5--|
   Eb|--3----3--1--3--1--3--|

     Then play this once

   Eb|----------------------|
   Bb|----------------------|
   Gb|----------------------|
   Db|----------------------|
   Ab|--5----5--3--5--8-----|
   Eb|--3----3--1--3--6-----|

     OUTRO:

   Eb|---------------------------------------------------|
   Bb|---------------------------------------------------|
   Gb|---------------------------------------------------|
   Db|---------------------------------------------------|
   Ab|--11-11-11-11-11-11-11-11-10-10-10-10-10-10-10-10--|
   Eb|---9--9--9--9--9--9--9--9--8--8--8--8--8--8--8--8--|
        pm.............................................

   Eb|-----------------------------------------|
   Bb|-----------------------------------------|
   Gb|-----------------------------------------|
   Db|-----------------------------------------|
   Ab|--5----5--3--5--3--5----5----5--3--5--8--|
   Eb|--3----3--1--3--1--3----3----3--1--3--6--|



Important: The song above is NOT stored on the Chordie server. The original song is hosted at www.xguitar.com. Chordie works as a search engine and provides on-the-fly formatting. Chordie does not index songs against artists'/composers' will. To remove this song please click here.

This song is displayed as text-only. Transposing and tuning is only available for chordpro-songs.

Login - add to songbook

Rating click stars to rate

Layout
Accuracy

SHARE PAGE  




You need to log in to post comments