Guitar Tabs, Chords and Lyrics


Action    Powerman 5000



Powerman 5000
Action
Tabbed by DangerIsGo
DangerIsGo@ShraZ.net
Drop D and down 1/2 Step
(C#, G#, C#, F#, A#, D#)
Do NOT reprint without permission.

Guitar 1:
F#--------------------------7-7-7-7-
C#--5-5-5-5-5-5-5-5-5-5-5-5-4-4-4-4-
G#--0-0-0-0-0-0-0-0-0-0-0-0-5-5-5-5-
C#----------------------------------
   x4 (On 3rd and 4th, guitar 2 plays along)


Guitar 1:
F#--------------------------7-7-7-7-
C#--5-5-5-5-5-5-5-5-5-5-5-5-4-4-4-4-
G#--0-0-0-0-0-0-0-0-0-0-0-0-5-5-5-5-
C#----------------------------------
   x4

Guitar 2:
C#--7-7-7-7-7-7-7-7-7-7-7-7-12-12-12-12-
G#--7-7-7-7-7-7-7-7-7-7-7-7-12-12-12-12-
C#--7-7-7-7-7-7-7-7-7-7-7-7-12-12-12-12-
   x4

Both guitars:
F#--------------------------7-7-7-7-
C#--5-5-5-5-5-5-5-5-5-5-5-5-4-4-4-4-
G#--0-0-0-0-0-0-0-0-0-0-0-0-5-5-5-5-
C#----------------------------------
   x4

*Chorus*
F#------------------------------------------
C#--7-7-7-7-7-7-7-7-10-10-10-10-10-10-10-10-
G#--7-7-7-7-7-7-7-7-10-10-10-10-10-10-10-10-
C#--7-7-7-7-7-7-7-7-10-10-10-10-10-10-10-10-

F#------------------7-7-7-7-7-7-7-7-
C#--2-2-2-2-2-2-2-2-7-7-7-7-7-7-7-7-
G#--2-2-2-2-2-2-2-2-5-5-5-5-5-5-5-5-
C#--2-2-2-2-2-2-2-2-----------------

F#------------------------------------------
C#--7-7-7-7-7-7-7-7-10-10-10-10-10-10-10-10-
G#--7-7-7-7-7-7-7-7-10-10-10-10-10-10-10-10-
C#--7-7-7-7-7-7-7-7-10-10-10-10-10-10-10-10-

F#----------------------------------
C#--2-2-2-2-2-2-2-2-7-7-7-7-7-7-7-7
G#--2-2-2-2-2-2-2-2-7-7-7-7-7-7-7-7
C#--2-2-2-2-2-2-2-2-7-7-7-7-7-7-7-7


Guitar 1:
F#--------------------------7-7-7-7-
C#--5-5-5-5-5-5-5-5-5-5-5-5-4-4-4-4-
G#--0-0-0-0-0-0-0-0-0-0-0-0-5-5-5-5-
C#----------------------------------
   x4

Guitar 2:
C#--7-7-7-7-7-7-7-7-7-7-7-7-12-12-12-12-
G#--7-7-7-7-7-7-7-7-7-7-7-7-12-12-12-12-
C#--7-7-7-7-7-7-7-7-7-7-7-7-12-12-12-12-
   x4


Both guitars:
F#--------------------------7-7-7-7-
C#--5-5-5-5-5-5-5-5-5-5-5-5-4-4-4-4-
G#--0-0-0-0-0-0-0-0-0-0-0-0-5-5-5-5-
C#----------------------------------
   x4

*Chorus*
F#------------------------------------------
C#--7-7-7-7-7-7-7-7-10-10-10-10-10-10-10-10-
G#--7-7-7-7-7-7-7-7-10-10-10-10-10-10-10-10-
C#--7-7-7-7-7-7-7-7-10-10-10-10-10-10-10-10-

F#------------------7-7-7-7-7-7-7-7-
C#--2-2-2-2-2-2-2-2-7-7-7-7-7-7-7-7-
G#--2-2-2-2-2-2-2-2-5-5-5-5-5-5-5-5-
C#--2-2-2-2-2-2-2-2-----------------

F#------------------------------------------
C#--7-7-7-7-7-7-7-7-10-10-10-10-10-10-10-10-
G#--7-7-7-7-7-7-7-7-10-10-10-10-10-10-10-10-
C#--7-7-7-7-7-7-7-7-10-10-10-10-10-10-10-10-

F#----------------------------------
C#--2-2-2-2-2-2-2-2-7-7-7-7-7-7-7-7
G#--2-2-2-2-2-2-2-2-7-7-7-7-7-7-7-7
C#--2-2-2-2-2-2-2-2-7-7-7-7-7-7-7-7
  Chorus x2 (Second time do last 7's like 7-7--7-7--7 )

*Bridge* Both Guitars:
C#--7-7-7-8-8-8-10-10-11-11-7-7-7-8-8-8-10-10-11-11-
G#--7-7-7-8-8-8-10-10-11-11-7-7-7-8-8-8-10-10-11-11-
C#--7-7-7-8-8-8-10-10-11-11-7-7-7-8-8-8-10-10-11-11-

F#--7-7-7-8-8-8-10-10-11-11-7-7-7-8-8-8-10-10-11-11-
C#--7-7-7-8-8-8-10-10-11-11-7-7-7-8-8-8-10-10-11-11-
G#--5-5-5-6-6-6--8--8--9--9-5-5-5-6-6-6--8--8--9--9-
C#--------------------------------------------------

C#------------------------------------------
G#--7-10-7-10-7-10-7-10-7-10-7-10-9---------
C#--7-10-7-10-7-10-7-10-7-10-7-10---10-7-10-
PM  .  . .  . .  . .  . .  . .  .
  x3

C#------------------------------------------
G#--7-10-7-10-7-10-7-10-7-10-7-10-7-10-7-10-
C#--7-10-7-10-7-10-7-10-7-10-7-10-7-10-7-10-
PM  .  . .  . .  . .  . .  . .  . .  . .  .

*GO!!*

Solo time:

D#--15--15--15--15--15----15--15--15--15--15---
A#--18^-18^-18^-18^-18^~--18^-18^-18^-18^-18^~-
F#---------------------------------------------

D#-----------------------------------------------------------------
A#--------------------------------------------------------18\\15-15-
F#--17p14----19p14----17p14----19p14----17p14----19p14----17\\14-14-
C#--------17-------17-------17-------17-------17-------17----------

D#------------------------------------------------------------
A#------------------------------------------------------------
F#--17p14----19p14----17p14----19p14----17p14----19p14----*19^*-

Important: The song above is NOT stored on the Chordie server. The original song is hosted at www.xguitar.com. Chordie works as a search engine and provides on-the-fly formatting. Chordie does not index songs against artists'/composers' will. To remove this song please click here.

This song is displayed as text-only. Transposing and tuning is only available for chordpro-songs.

Login - add to songbook

Rating click stars to rate

Layout
Accuracy

SHARE PAGE  




You need to log in to post comments