Guitar Tabs, Chords and Lyrics


Free    Powerman 5000



Powerman 5000 - Free
Tabbed by DangerIsGo
Drop D and Down 1/2 Step
(C#,G#,C#,F#,A#,D#)
It is very hard to hear, a.k.a. new sound..But if you have
the right distortion on, itll sound like the real thing.

Both Guitars:
F#-4-4-4-4--2-2-2-2----------------------------
C#-2-2-2-2--2-2-2-2--*7*------5-5-5-5--2-2-2-2-
G#-2-2-2-2--0-0-0-0------*7*--5-5-5-5--2-2-2-2-
C#----------------------------5-5-5-5--2-2-2-2-
   x2

Guitar 1:
C#-4---2--4--7---4-----4--2--4------
G#-------------------------------2--
C#----------------------------------
   x2

While Guitar 2 does:
F#-4-4-4-4-4-4-4-4-2-2-2-2-2-2-2-2---------------------------------
C#-2-2-2-2-2-2-2-2-2-2-2-2-2-2-2-2-5-5-5-5-5-5-5-5-2-2-2-2-2-2-2-2-
G#-2-2-2-2-2-2-2-2-0-0-0-0-0-0-0-0-5-5-5-5-5-5-5-5-2-2-2-2-2-2-2-2-
C#---------------------------------5-5-5-5-5-5-5-5-2-2-2-2-2-2-2-2-
   x2

*Lyrics Begin*
F#-4-4-4-4--2-2-2-2-------------------
C#-2-2-2-2--2-2-2-2--5-5-5-5--2-2-2-2-
G#-2-2-2-2--0-0-0-0--5-5-5-5--2-2-2-2-
C#-------------------5-5-5-5--2-2-2-2-
   x2

*Chorus*
Guitar 1:
C#-5-5-5-5--7-7-7-2--3-2-3-2-3-2-3-
G#-5-5-5-5--7-7-7-2--3-2-3-2-3-2-3-
C#-5-5-5-5--7-7-7-2--3-2-3-2-3-2-3-
  x3

C#-9-9-9-9--5-5-5-2--3-2-3-2-3-2-3-
G#-9-9-9-9--5-5-5-2--3-2-3-2-3-2-3-
C#-9-9-9-9--5-5-5-2--3-2-3-2-3-2-3-

Guitar 2:
D#--5-3-3--5-3-3--5-3-3--5-3--5-3--5-3-3--5-3-3--5--7-
A#----------------------------------------------------
F#----------------------------------------------------

D#--5-3-3--5-3-3--5-3-3--5-3--5-3--7-------------------
A#-------------------------------------3---------------
F#-----------------------------------------2--4-4-2-4--
*Chorus Ends*


Guitar 1:
C#-4---2--4--7---4-----4--2--4-----
G#------------------------------2--
C#---------------------------------
   x2

While Guitar 2 does:
F#-4-4-4-4-4-4-4-4-2-2-2-2-2-2-2-2---------------------------------
C#-2-2-2-2-2-2-2-2-2-2-2-2-2-2-2-2-5-5-5-5-5-5-5-5-2-2-2-2-2-2-2-2-
G#-2-2-2-2-2-2-2-2-0-0-0-0-0-0-0-0-5-5-5-5-5-5-5-5-2-2-2-2-2-2-2-2-
C#---------------------------------5-5-5-5-5-5-5-5-2-2-2-2-2-2-2-2-
   x2

*Lyrics Begin Again*
F#-4-4-4-4--2-2-2-2-------------------
C#-2-2-2-2--2-2-2-2--5-5-5-5--2-2-2-2-
G#-2-2-2-2--0-0-0-0--5-5-5-5--2-2-2-2-
C#-------------------5-5-5-5--2-2-2-2-
   x2

*Chorus*
Guitar 1:
C#-5-5-5-5--7-7-7-2--3-2-3-2-3-2-3-
G#-5-5-5-5--7-7-7-2--3-2-3-2-3-2-3-
C#-5-5-5-5--7-7-7-2--3-2-3-2-3-2-3-
  x3

 *On repeat, Pm these (notes below)*
C#-9-9-9-9--5-5-5-2--3-2-3-2-3-2-3-
G#-9-9-9-9--5-5-5-2--3-2-3-2-3-2-3-
C#-9-9-9-9--5-5-5-2--3-2-3-2-3-2-3-
 Both x2 (Guitar 1)

Guitar 2:
D#--5-3-3--5-3-3--5-3-3--5-3--5-3--5-3-3--5-3-3--5--7-
A#----------------------------------------------------
F#----------------------------------------------------

D#--5-3-3--5-3-3--5-3-3--5-3--5-3--7-------------------
A#-------------------------------------3---------------
F#-----------------------------------------2--4-4-2-4--
  Both x2  On repeat, play last line this way:

D#--5-3-3--5-3-3--5-3-3--5-3--5-3--7-----------------------------2----
A#-------------------------------------3------------------------------
F#-----------------------------------------2--4-4-2-4-2-4-2-4-------4-

*Chorus Ends*

Guitar 1 Play this lone chord before last two notes above ^
A#------
F#------
C#-5----
G#-5----
C#-5----


Guitar #1:
F#-4-4-4-4-4-4-4-4-2-2-2-2-2-2-2-2---------------------------------
C#-2-2-2-2-2-2-2-2-2-2-2-2-2-2-2-2-5-5-5-5-5-5-5-5-2-2-2-2-2-2-2-2-
G#-2-2-2-2-2-2-2-2-0-0-0-0-0-0-0-0-5-5-5-5-5-5-5-5-2-2-2-2-2-2-2-2-
C#---------------------------------5-5-5-5-5-5-5-5-2-2-2-2-2-2-2-2-
PM . . . . . . . . . . . . . . . . . . . . . . . . . . . . . . . .
  x6

Guitar #2 Starting on 3rd repeat:
C#--4-2--2-2--2---4-2--2-2--2---4-2--2-2--2---4-2--2-2-2-2--
D#----------------------------------------------------------
C#----------------------------------------------------------
  x2

C#--4-2-4-4----4-2-4-4----4-2-4---2-4-----
D#-------------------------------------2--
C#----------------------------------------
  x2

*Chorus*
Guitar 1:
C#-5-5-5-5--7-7-7-2--3-2-3-2-3-2-3-
G#-5-5-5-5--7-7-7-2--3-2-3-2-3-2-3-
C#-5-5-5-5--7-7-7-2--3-2-3-2-3-2-3-
  x3

 *On repeat, Pm these (notes below)*
C#-9-9-9-9--5-5-5-2--3-2-3-2-3-2-3-
G#-9-9-9-9--5-5-5-2--3-2-3-2-3-2-3-
C#-9-9-9-9--5-5-5-2--3-2-3-2-3-2-3-
 Both x2

Guitar 2:
D#--5-3-3--5-3-3--5-3-3--5-3--5-3--5-3-3--5-3-3--5--7-
A#----------------------------------------------------
F#----------------------------------------------------

D#--5-3-3--5-3-3--5-3-3--5-3--5-3--7-------------------
A#-------------------------------------3---------------
F#-----------------------------------------2--4-4-2-4--
  Both x2
*Chorus Ends*


Guitar 1:
C#-4---2--4--7---4-----4--2--4-----
G#------------------------------2--
C#---------------------------------
   x2

While Guitar 2 does:
F#-4-4-4-4-4-4-4-4-2-2-2-2-2-2-2-2---------------------------------
C#-2-2-2-2-2-2-2-2-2-2-2-2-2-2-2-2-5-5-5-5-5-5-5-5-2-2-2-2-2-2-2-2-
G#-2-2-2-2-2-2-2-2-0-0-0-0-0-0-0-0-5-5-5-5-5-5-5-5-2-2-2-2-2-2-2-2-
C#---------------------------------5-5-5-5-5-5-5-5-2-2-2-2-2-2-2-2-
   x2


Both Guitars:
F#-4-4-4-4--2-2-2-2----------------------------
C#-2-2-2-2--2-2-2-2--*7*------5-5-5-5--2-2-2-2-
G#-2-2-2-2--0-0-0-0------*7*--5-5-5-5--2-2-2-2-
C#----------------------------5-5-5-5--2-2-2-2-


Important: The song above is NOT stored on the Chordie server. The original song is hosted at www.xguitar.com. Chordie works as a search engine and provides on-the-fly formatting. Chordie does not index songs against artists'/composers' will. To remove this song please click here.

This song is displayed as text-only. Transposing and tuning is only available for chordpro-songs.

Login - add to songbook

Rating click stars to rate

Layout
Accuracy

SHARE PAGE  




You need to log in to post comments