Guitar Tabs, Chords and Lyrics


Theme to a Fake Revolution    Powerman 5000



Theme to a Fake Revolution
Powerman 5000
Tabbed by DangerIsGo (DiGGy)
DangerIsGo@ShraZ.net
Please do not reprint without permission

Drop D and down 1/2 step
C#, G#, C#, F#, G#, D#



C#--2--2--6-6-6--6-6-6---2--2--6-6-6--5-5-5-
G#--2--2--6-6-6--6-6-6---2--2--6-6-6--5-5-5-
C#--2--2--6-6-6--6-6-6---2--2--6-6-6--5-5-5-
  x4

C#--2--2--6-6-6--6-6-6---10--10--12-12-12-12-12-12-12-
G#--2--2--6-6-6--6-6-6---10--10--12-12-12-12-12-12-12-
C#--2--2--6-6-6--6-6-6---10--10--12-12-12-12-12-12-12-


C#--10-10-10--3--3-3---10-10-10--2-2--10-10-10--3---2-
G#--10-10-10--3--3-3---10-10-10--2-2--10-10-10--3---2-
C#--10-10-10--3--3-3---10-10-10--2-2--10-10-10--3---2-
  x2

C#--2--2--6-6-6--6-6-6---2--2--6-6-6--5-5-5-
G#--2--2--6-6-6--6-6-6---2--2--6-6-6--5-5-5-
C#--2--2--6-6-6--6-6-6---2--2--6-6-6--5-5-5-
  x4

C#--2--2--6-6-6--6-6-6---10--10--12-12-12-12-12-12-12-
G#--2--2--6-6-6--6-6-6---10--10--12-12-12-12-12-12-12-
C#--2--2--6-6-6--6-6-6---10--10--12-12-12-12-12-12-12-


C#--10-10-10--3--3-3---10-10-10--2-2--10-10-10--3---2-
G#--10-10-10--3--3-3---10-10-10--2-2--10-10-10--3---2-
C#--10-10-10--3--3-3---10-10-10--2-2--10-10-10--3---2-
  x2

C#--2----
G#--2----
C#--2----


C#--2--5-7--8-7-5-2-5-7-8-7-5-7---2--5-7--8-7-5-2-5-7-8-7-5-12-
G#--2--5-7--8-7-5-2-5-7-8-7-5-7---2--5-7--8-7-5-2-5-7-8-7-5-12-
C#--2--5-7--8-7-5-2-5-7-8-7-5-7---2--5-7--8-7-5-2-5-7-8-7-5-12-

C#--2--5-7--8-7-5-2-5-7-8-7-5-7---2--5-7--8-7-5-10-10-10-10-12-12-12-12-
G#--2--5-7--8-7-5-2-5-7-8-7-5-7---2--5-7--8-7-5-10-10-10-10-12-12-12-12-
C#--2--5-7--8-7-5-2-5-7-8-7-5-7---2--5-7--8-7-5-10-10-10-10-12-12-12-12-
  Both x2


C#--2--2--6-6-6--6-6-6---2--2--6-6-6--5-5-5-
G#--2--2--6-6-6--6-6-6---2--2--6-6-6--5-5-5-
C#--2--2--6-6-6--6-6-6---2--2--6-6-6--5-5-5-

C#----------------
G#--x-x-x--x-x-x--
C#--x-x-x--x-x-x--

C#--2--2--6-6-6--6-6-6---2--2--6-6-6--5-5-5-
G#--2--2--6-6-6--6-6-6---2--2--6-6-6--5-5-5-
C#--2--2--6-6-6--6-6-6---2--2--6-6-6--5-5-5-
  x3

C#--2--2--6-6-6--6-6-6---10--10--12-12-12-12-12-12-12-
G#--2--2--6-6-6--6-6-6---10--10--12-12-12-12-12-12-12-
C#--2--2--6-6-6--6-6-6---10--10--12-12-12-12-12-12-12-


C#--10-10-10--3--3-3---10-10-10--2-2--10-10-10--3---2-
G#--10-10-10--3--3-3---10-10-10--2-2--10-10-10--3---2-
C#--10-10-10--3--3-3---10-10-10--2-2--10-10-10--3---2-
  x2

C#--2---------------------2-
G#--2---------------------2-
C#--2---------------------2-


Important: The song above is NOT stored on the Chordie server. The original song is hosted at www.xguitar.com. Chordie works as a search engine and provides on-the-fly formatting. Chordie does not index songs against artists'/composers' will. To remove this song please click here.

This song is displayed as text-only. Transposing and tuning is only available for chordpro-songs.

Login - add to songbook

Rating click stars to rate

Layout
Accuracy

SHARE PAGE  




You need to log in to post comments