Chordie logo

Final Embrace    Primal Fear



PRIMAL FEAR - FINAL EMBRACE
(Jaws Of Death, 1999)

Key
= after note = vibrato
^ after note = heavy vibrato
\ = slide down
/ = slide up
+ = tap
h = hammer
p = pull
n = natural harmonic
s = pinching harmonic (squeal)
* = tremolo pick
t = trill
b = bend
|-3-| = triplet

n number above the tab = play the first part then the first finishing part
			 play the first part a second time and then play the second finishing part
			 etc.

Riff 1

E --------------------------------------------------------------------
B --------------------------------------------------------------------
G -7-9-----9-------9-----10---7-----7-9-----9-------9-----12---10-----
D -7-9-----9-------9-----10---7-----7-9-----9-------9-----12---10-----
A -5-7-----7-------7-----8 ---5-----5-7-----7-------7-----10---8 -----
E -----0-0---0-0-0---0-0----0---0-0-----0-0---0-0-0---0-0----0----0-0-

Riff 1A

E ----------------------------------------------------------------
B ----------------------------------------------------------------
G -7-9-----9-------9-----10---7-----9-9---4---5---7---2---4-2-----
D -7-9-----9-------9-----10---7-----9-9---4---5---7---2---4-2-----
A -5-7-----7-------7-----8 ---5-----7-7---2---3---5---0---2-0-----
E -----0-0---0-0-0---0-0----0---0-0-----0---0---0---0---0-----s3==

Riff

E ------------------------------------------------------
B ------------------------------------------------------
G -9-9---4---5---7---2---4-2------9-9---4---5---9--7-9--
D -9-9---4---5---7---2---4-2------9-9---4---5---9--7-9--
A -7-7---2---3---5---0---2-0------7-7---2---3---7--5-7--
E -----0---0---0---0---0------s3==----0---0---0---------

E ----------------------------------------------------------------
B ----------------------------------------------------------------
G -7-9-----9-------9-----10---7-----9-9---4---5---7---2---4-2-----
D -7-9-----9-------9-----10---7-----9-9---4---5---7---2---4-2-----
A -5-7-----7-------7-----8 ---5-----7-7---2---3---5---0---2-0-----
E -----0-0---0-0-0---0-0----0---0-0-----0---0---0---0---0-----s3==

Riff 2

E ----------------------------------------------------------------------
B ----------------------------------------------------------------------
G --------------------------------------------------7--------4----------
D -2------------------------------------------------7--------4----------
A -2------------------------------------------------5--------2----------
E -0--------------------------------------------------------------s3====

E --------------------------------------------------------------------------------------------------------------------
B --------------------------------------------------------------------------------------------------------------------
G -------------------------------------------------------------------------------------------------7--------2----4----
D -5-----5-----5-----5-----5---4---5-----5-----5-----5-----5---7---5-----5-----5-----5-----5---4---7--------2----4----
A -7-----7-----7-----7-----7---5---7-----7-----7-----7-----7---9---7-----7-----7-----7-----7---5---5--------0----2----
E ---0-0---0-0---0-0---0-0---0---0---0-0---0-0---0-0---0-0---0---0---0-0---0-0---0-0---0-0---0---0--------------------

Riff 3

E ----------------------------------------------------------------------------------------
B ----------------------------------------------------------------------------------------
G -5------------------------------------------------5---------------------7----5----------
D -5------------------------------------------------5----------------2----7----5----------
A -3----------------------0-2-0-----5-3-2-0-2-0-----3----------------2----5----3----------
E ------------------0-2-3-------3-0-------------3-0------------------0--------------s3====

E -----------------------------------------------------------------------
B -----------------------------------------------------------------------
G -5----------------7----------------5----------------4--------s4--------
D -5----------------7----------------7----------------4------------------
A -3----------------5----------------6----------------2------------------
E -----------------------------------------------------------------------

Riff 4

E -------------------------------------------------------------------------
B -------------------------------------------------------------------------
G ----------5--------7--------------------------5-----------------7--------
D -2--------5--------7--------5--------2--------5--------5--------7--------
A -2--------3--------5--------5--------2--------3--------5--------5--------
E -0--------------------------3--------0-----------------3-----------------

E -------------------------------------------------------
B -------------------------------------------------------
G ----------------------------7--------5--------7--------
D -2--------5--------7--------7--------5--------7--------
A -2--------5--------7--------5--------3--------5--------
E -0--------3--------5-----------------------------------

Fill 1

E -------------------------------
B -------------------------------
G -9-9---4---5---7---2---4-2-----
D -9-9---4---5---7---2---4-2--5--
A -7-7---2---3---5---0---2-0--5--
E -----0---0---0---0---0------3--

Riff 5

E -------------------------------------------------------------
B -------------------------------------------------------------
G -------------------------------------------------------------
D -4------------------5-4-5-4----4------------------5-4-5-4-7--
A -4------------------5-4-5-4----4------------------5-4-5-4-7--
E -2--2-2-2-2-2-2-2-2-3-2-3-2-0--2--2-2-2-2-2-2-2-2-3-2-3-2-5--

E -------------------------------------------------------------
B -------------------------------------------------------------
G -------------------------------------------------------------
D -4------------------5-4-5-4----4------------------5-4-5-4-8--
A -4------------------5-4-5-4----4------------------5-4-5-4-8--
E -2--2-2-2-2-2-2-2-2-3-2-3-2-0--2--2-2-2-2-2-2-2-2-3-2-3-2-6--

Riff 5A

E --------------------------------------------------------------
B --------------------------------------------------------------
G --------------------------------------------------------------
D -7------------------8-7-8-7-5--7------------------8-7-8-7-10--
A -7------------------8-7-8-7-5--7------------------8-7-8-7-10--
E -5--5-5-5-5-5-5-5-5-6-5-6-5-3--5--5-5-5-5-5-5-5-5-6-5-6-5-8 --

E --------------------------------------------------------------
B --------------------------------------------------------------
G --------------------------------------------------------------
D -7------------------8-7-8-7-5--7------------------------------
A -7------------------8-7-8-7-5--7------------------------------
E -5--5-5-5-5-5-5-5-5-6-5-6-5-3--5--5-5-5-5-5-5-5-5-5-5-5-5-5-5-

Riff 6

E ---------------------------------------------------------------------
B ---------------------------------------------------------------------
G -4----------------2----------------4---------------------------------
D -4----------------2----------------4----------------5----------------
A -2----------------0----------------2----------------5----------------
E ----------------------------------------------------3----------------

E ----------------------------------------------------------------------

B ----------------------------------------------------------------------
G -4----------------2---------------------------------------------------
D -4----------------2----------------5----------------2--------4--------
A -2----------------0----------------5----------------2--------4--------
E -----------------------------------3----------------0--------2--------

Riff 6A

E ---------------------------------------------------------------------------
B ---------------------------------------------------------------------------
G ---------------------------------------------------------------------------
D ---------------------------------------------------------------------------
A -2--------4----5----------------------2--------4----5----9--------7--------
E --------------------5--------2---------------------------------------------

E ---------------------------------------------------------------------------
B ---------------------------------------------------------------------------
G ---------------------------------------------------------------------------
D ---------------------------------------------------------------------------
A -2--------4----5-----------------------------------------9--------7--------
E --------------------5--------2--------3--------2----3----------------------

Riff 6B

E -----------------------------------------------------------------14--------12--------
B -12--------14----15------------------------12--------14----15------------------------
G -----------------------14--------11--------------------------------------------------
D -------------------------------------------------------------------------------------
A -------------------------------------------------------------------------------------
E -------------------------------------------------------------------------------------

E -----------------------------------------------------------------14--------12--------
B -12--------14----15------------------------------------------------------------------
G -----------------------14--------11--------12--------11----12------------------------
D -------------------------------------------------------------------------------------
A -------------------------------------------------------------------------------------
E -------------------------------------------------------------------------------------

Riff 7

E -------------------------------------
B -------------------------------------
G ----------5--------7--------4--------
D -2--------5--------7--------4--------
A -2--------3--------5--------2--------
E -0-----------------------------------

Riff 7A

E -------------------------------------
B -------------------------------------
G -5-----------------2--------4--------
D -5--------5--------2--------4--------
A -3--------5--------0--------2--------
E ----------3--------------------------

Fill 2

E -------------------
B -------------------
G -------------------
D -------------------
A -------------------
E -0\----------------

Order

Riff 1 x 5
Riff 1A x 1
Riff 2 x 1
Riff 3 x 1
Riff 4 x 1
Riff 1 x 1
Riff 1A x 1
Riff 2 x 1
Riff 3 x 1
Riff 4 x 1
Fill 1 x 1
Riff 5 x 1
Riff 5A x 1
Riff 6/6A/6B x 1
Solo over Riff 7 x 3
Solo over Riff 7A x 1
Riff 3 x 1
Fill 2 x 1
Riff 4 x 2
Riff 1 x 3
Riff 1B x 2



Important: The song above is NOT stored on the Chordie server. The original song is hosted at www.xguitar.com. Chordie works as a search engine and provides on-the-fly formatting. Chordie does not index songs against artists/composers will. To remove this song please click here.

This song is displayed as text-only. Transposing and tuning is only available for chordpro-songs.

Login - add to songbook

Rating click stars to rate

Layout
Accuracy

SHARE PAGE  

You need to log in to post comments