Chordie logo


My Friend Fats    Primus



Artist: Primus
Song: My Friend Fats
Album: Animals Should Not Try to Act Like People EP (2003)
Tuning: E-A-D-G-B-E
Notes:

v = volume swell

Intro
e|------------------------------------------------------|
B|------------------------------------------------------|
G|------------------------------------------------------|
D|------------------------------------------------------|
A|--3-3-3-3------3-3-3-3------3-3-3-3------3-3-3-3------|
E|--1-1-1-1------1-1-1-1------1-1-1-1------1-1-1-1------|
 PM . . . .      . . . .      . . . .      . . . .

Chorus		     	
e|------------------------------------------------------|
B|------------------------------------------------------|
G|------------------------------------------------------|
D|-----------------------1v------------------------1v---|
A|--3-3-3-3------3-3-3-3------3-3-3-3------3-3-3-3------|
E|--1-1-1-1------1-1-1-1------1-1-1-1------1-1-1-1------|
 PM . . . .      . . . .      . . . .      . . . .

 w/ Tremolo Effect
e|------------------5-------------------------5---------|
B|------------------------------------------------------|
G|------------------------------------------------------|
D|--1/3~\\-/3--5/1~-/3---3-\\5-/1--3---3-\\5-/1--3---------|
A|-------------------------------1----------------------|
E|------------------------------------------------1-----|


e|--------------------------------------------8-------------------------------|
B|--4---6---8---7---8-----4---6---8---7---8--------4---6---8---7---8----(10)--|
G|---4---6---8---7---8-----4---6---8---7---8--------4---6---8---7---8---------|() Play at end
D|----4---6---8---7---8-----4---6---8---7---8--------4---6---8---7---8--------|
A|----------------------------------------------------------------------------|
E|----------------------------------------------------------------------------|


e|--------------------------------------------------------------------------------8--10----|
B|--------------------------------------------------------10-8----8---------------------8--|
G|--5--3-3---------------------------------8-8-8-8/10--10------7--7----8-/-10-\\-6----------|
D|--3--1-1---------------------------------------------------------------------------------|
A|-------------3/5-3--8--6/8-9--6/8--8\\6-6-------------------------------------------------|
E|-----------1-----------------------------------------------------------------------------|


e|----8----8--10-13--11-10-11-10-8--8-8-10-8-8-------------------------------------------|
B|--10---11-------------------------------------10-11-10-8-10-8------10---8--------8-----|
G|--------------------------------------------------------------10-8----8---8--7-8---10--|
D|---------------------------------------------------------------------------------------|
A|---------------------------------------------------------------------------------------|
E|---------------------------------------------------------------------------------------|


e|-----------------------------------------------------------------------------------------------|
B|-------8---------------------------------------------------------------------------------------|
G|--8h10---10--8-10--10--------------------------------------------------------------------------|
D|-------------------8-----3--4-3--4-3--1-1-1-1-1-3---3-3-3-1-1-1-3-3-3-4-4-4-3-3-3-1-1-1-3-3-3--|
A|-----------------------------------------------------------------------------------------------|
E|-----------------------------------------------------------------------------------------------|


Important: The song above is NOT stored on the Chordie server. The original song is hosted at www.xguitar.com. Chordie works as a search engine and provides on-the-fly formatting. Chordie does not index songs against artists/composers will. To remove this song please click here.

This song is displayed as text-only. Transposing and tuning is only available for chordpro-songs.

Login - add to songbook

Rating click stars to rate

Layout
Accuracy

SHARE PAGE  




You need to log in to post comments