Guitar Tabs, Chords and Lyrics


Arnie    Primus



Tabbed by Chris Rowe
dukes@epix.net

 w = whammy
 ~ = play quickly, many times

Ler uses that vibrato stuff.

e ||------||----------------||
B ||--8w--||----------------||
G ||--8w--||-----7-------7--||  Add fills similar
D ||------||--7--------7----||  to this one.
A ||------||--7-------------||
E ||------||--0-------------||


e ||----------15w--||
B ||--13--16--16w--||  As always, it will sometimes
G ||---------------||  go up to the higher frets.
D ||---------------||
A ||---------------||
E ||---------------||

To the end...

e ||-------------------------------------------17~--16~----------------------------------||
B ||-----------------------------------15~--------------18~--20~--16~--------------------||
G ||-----9~-13~-11~-16~-13~-11~-9~-16~-----16~------------------------17~----------------||
D ||----------------------------------------------------------------------16~-18~-0---2--||
A ||--------------------------------------------------------------------------------2-2--||


Important: The song above is NOT stored on the Chordie server. The original song is hosted at www.xguitar.com. Chordie works as a search engine and provides on-the-fly formatting. Chordie does not index songs against artists'/composers' will. To remove this song please click here.

This song is displayed as text-only. Transposing and tuning is only available for chordpro-songs.

Login - add to songbook

Rating click stars to rate

Layout
Accuracy

SHARE PAGE  




You need to log in to post comments