Chordie logo


Puddin' Taine    Primus



Artist: Primus
Song: Puddin' Taine
Album: Brown Album (1997)
Tuning: E-A-D-G-B-e


Verse 1:
e|---------------------------------|
B|---------------------------------|
G|---------------------------------|
D|---------------------------------|
A|--5-5-5--5-5-5-----5-5-5--5-5-5--|
E|---------------------------------| (x2)


Chorus:
e|----------------------------------|
B|----------------------------------|
G|----------------------------------|
D|--12--12--10--13--12--12-12---10--|
A|--12--12--10--13--12--12-12---10--|
E|--10--10--8---11--10--10-10---8---|

e|----------------------------------|
B|----------------------------------|
G|----------------------------------|
D|--12--12--10--13--12--12------10--|
A|--12--12--10--13--12--12------10--|
E|--10--10--8---11--10--10------8---|

e|----------------------------------|
B|----------------------------------|
G|----------------------------------|
D|--12--12--10--13--12--12-12---10--|
A|--12--12--10--13--12--12-12---10--|
E|--10--10--8---11--10--10-10---8---|

e|----------------------------------|
B|----------------------------------|
G|----------------------------------|
D|--12--12--10--13--12--12------10--|
A|--12--12--10--13--12--12------10--|
E|--10--10--8---11--10--10------8---|


Verse 2: - Ler does more than this here for the harmonic part
e|-----------------------|
B|-----------------------|
G|-----------------------|
D|-----------------|
A|--------------------|
E|--------------| (x4)

e|---------------------------------|
B|---------------------------------|
G|---------------------------------|
D|---------------------------------|
A|--5-5-5--5-5-5-----5-5-5--5-5-5--|
E|---------------------------------| (x4)


Chorus:
e|----------------------------------|
B|----------------------------------|
G|----------------------------------|
D|--12--12--10--13--12--12-12---10--|
A|--12--12--10--13--12--12-12---10--|
E|--10--10--8---11--10--10-10---8---|

e|----------------------------------|
B|----------------------------------|
G|----------------------------------|
D|--12--12--10--13--12--12------10--|
A|--12--12--10--13--12--12------10--|
E|--10--10--8---11--10--10------8---|

e|----------------------------------|
B|----------------------------------|
G|----------------------------------|
D|--12--12--10--13--12--12-12---10--|
A|--12--12--10--13--12--12-12---10--|
E|--10--10--8---11--10--10-10---8---|

e|----------------------------------|
B|----------------------------------|
G|----------------------------------|
D|--12--12--10--13--12--12------10--|
A|--12--12--10--13--12--12------10--|
E|--10--10--8---11--10--10------8---|


Guitar Solo:
e|---------------------------------------------------------|
B|--15-15-15-16-15----16-15----15-15-15-16-18-18-18-16-17--|
G|--14-14-14-------14-------14-14-14-14--------------------|
D|---------------------------------------------------------|
A|---------------------------------------------------------|
E|---------------------------------------------------------|

e|------------------------------------------------|
B|------------------------------------------------|
G|-9-9-8-7--7-6-6-5-5-4-3-2/5-7--------------7-5--|
D|------------------------------5-7-7-5-5-4--7-5--|
A|-------------------------------------------5-3--|
E|------------------------------------------------|

e|------------------------------------------------------|
B|-----------------------------------19-19-19-19--------|
G|----------------4-4-4-5-4-4-4--/19--------------------|
D|--5-4-5---5-4-5--------------------------------17-17--|
A|--------3---------------------------------------------|
E|------------------------------------------------------|


Verse 3:
e|------------------------|
B|------------------------|
G|------------------------|
D|------------------|
A|---------------------|
E|---------------| (x4)

e|------------------------------------------------------|
B|------------------------------------------------------|
G|------------------------------------------------------|
D|------------------------------------------------|
A|--5-5-5--5-5-5-----5-5-5--5-5-5--------------------|
E|---------------------------------------------| (x4)

e|-------------------------------------|
B|-------------------------------------|
G|-------------------------------------|
D|-------------------------------|
A|--5-5-5--5-5-5--------------------|
E|----------------------------| (x6)


Chorus/Outro:
e|----------------------------------|
B|----------------------------------|
G|----------------------------------|
D|--12--12--10--13--12--12-12---10--|
A|--12--12--10--13--12--12-12---10--|
E|--10--10--8---11--10--10-10---8---|

e|----------------------------------|
B|----------------------------------|
G|----------------------------------|
D|--12--12--10--13--12--12------10--|
A|--12--12--10--13--12--12------10--|
E|--10--10--8---11--10--10------8---|

e|----------------------------------|
B|----------------------------------|
G|----------------------------------|
D|--12--12--10--13--12--12-12---10--|
A|--12--12--10--13--12--12-12---10--|
E|--10--10--8---11--10--10-10---8---|

e|----------------------------------|
B|----------------------------------|
G|----------------------------------|
D|--12--12--10--13--12--12------10--|
A|--12--12--10--13--12--12------10--|
E|--10--10--8---11--10--10------8---|

e|----------------------------------|
B|----------------------------------|
G|----------------------------------|
D|--12--12--10--13--12--12-12---10--|
A|--12--12--10--13--12--12-12---10--|
E|--10--10--8---11--10--10-10---8---|

e|----------------------------------|
B|----------------------------------|
G|----------------------------------|
D|--12--12--10--13--12--12------10--|
A|--12--12--10--13--12--12------10--|
E|--10--10--8---11--10--10------8---|

e|----------------------------------|
B|----------------------------------|
G|----------------------------------|
D|--12--12--10--13--12--12-12---10--|
A|--12--12--10--13--12--12-12---10--|
E|--10--10--8---11--10--10-10---8---|

e|-----------------------------|
B|-----------------------------|
G|-----------------------------|
D|--12--12--10--13--12--12-12--|
A|--12--12--10--13--12--12-12--|


Important: The song above is NOT stored on the Chordie server. The original song is hosted at www.xguitar.com. Chordie works as a search engine and provides on-the-fly formatting. Chordie does not index songs against artists/composers will. To remove this song please click here.

This song is displayed as text-only. Transposing and tuning is only available for chordpro-songs.

Login - add to songbook

Rating click stars to rate

Layout
Accuracy

SHARE PAGE  




You need to log in to post comments