Guitar Tabs, Chords and Lyrics


Face Value    Prong








Author/Artist: Prong
Title: Face Value
Album: Rude Awakening
Transcribed by: southpaw25@ziplip.com
Username: okregisterme

detune strings 1-5 one whole step
detune string 6 two whole steps
play with distortion throughout

(x)X(x) - 1st number indicates number of preceding staffs to repeat,
          2nd number indicates number of repeats
% - rest
x - muted string
/ - slide up
\\ - slide down
(x) - don't pick note

  intro

1----------------------------------------------------------------
2----------------------------------------------------------------
3------------------0-----------------------0---------------------
4-0----------------0--------------------0-----0---------------5--
5-0----------------1-----------------3------------------------5--
6-0-----------------------------------------------------------5--  1X2

  pre-verse

1------------------------------------------------------------------------------
2------------------------------------------------------------------------------
3------------------------------------------------------------------------------
4----10---10---10---8---8-8----10---10---10---8---8-8----10---10---10---8---8-8
5----8--%-8--%-8--%-6-%-6-6----8--%-8--%-8--%-6-%-6-6----8--%-8--%-8--%-6-%-6-6
6-0-------------------------0-------------------------0------------------------

1------------------------------------------------
2------------------------------------------------
3------------------------------------------------
4----6---6---6---8---8-8----6---6---6---8---8-8--
5----4-%-4-%-4-%-6-%-6-6----4-%-4-%-4-%-6-%-6-6--
6-0----------------------0-----------------------

1------------------------------------------------------------------------------
2------------------------------------------------------------------------------
3------------------------------------------------------------------------------
4----10---10---10---8---8-8----10---10---10---8---8-8----10---10---10---8---8--
5----8--%-8--%-8--%-6-%-6-6----8--%-8--%-8--%-6-%-6-6----8--%-8--%-8--%-6-%-6-%
6-0-------------------------0-------------------------0------------------------

  verse - guitar lays out

  pre-chorus

1----------------------------------------------------
2----------------------------------------------------
3----------------------------------------------------
4----10---10---10---x-x-x-x----10---10---10---8---8--
5----8--%-8--%-8--%-x-x-x-x----8--%-8--%-8--%-6-%-6--
6-0-----------------x-x-x-x-0------------------------  1X2

1------------------------------------------------------
2------------------------------------------------------
3------------------------------------------------------
4----10---10---10---x-x-x-x----10---10--8-8-8--8--8-8--
5----8--%-8--%-8--%-x-x-x-x----8--%-8---6-6-6--6--6-6--
6-0-----------------x-x-x-x-0--------------------------

  chorus - just like the intro, with an extra repeat

1----------------------------------------------------------------
2----------------------------------------------------------------
3------------------0-----------------------0---------------------
4-0----------------0--------------------0-----0---------------5--
5-0----------------1-----------------3------------------------5--
6-0-----------------------------------------------------------5--  1X3

  2nd pre-verse

1------------------------------------------------------------------------------
2------------------------------------------------------------------------------
3------------------------------------------------------------------------------
4----10---10---10---8---8-8----10---10---10---8---8-8----10---10---10---8---8-8
5----8--%-8--%-8--%-6-%-6-6----8--%-8--%-8--%-6-%-6-6----8--%-8--%-8--%-6-%-6-6
6-0-------------------------0-------------------------0------------------------

1------------------------------------------------
2------------------------------------------------
3------------------------------------------------
4----6---6---6---8---8-8----6---6---6---8---8-8--
5----4-%-4-%-4-%-6-%-6-6----4-%-4-%-4-%-6-%-6-6--
6-0----------------------0-----------------------

1--------------------------------------------------------------------------
2--------------------------------------------------------------------------
3--------------------------------------------------------------------------
4----10---10---10---8---8-8----10---10---10---8---8-8----10---10---10---\\--
5----8--%-8--%-8--%-6-%-6-6----8--%-8--%-8--%-6-%-6-6----8--%-8--%-8----\\--
6-0-------------------------0-------------------------0--------------------

  2nd verse - guitar lays out

  2nd chorus

1----------------------------------------------------------------
2----------------------------------------------------------------
3------------------0-----------------------0---------------------
4-0----------------0--------------------0-----0---------------5--
5-0----------------1-----------------3------------------------5--
6-0-----------------------------------------------------------5--

1--------------------------------------------------------------------
2--------------------------------------------------------------------
3------------------0-----------------------0-------------------------
4-0----------------0--------------------0-----0---------------5------
5-0----------------1-----------------3------------------------5------
6-0-----------------------------------------------------------5--/\\--

  bridge

1-----------------------------------------
2-----------------------------------------
3-----------------------------------------
4-0---0---0--0--0--1---1--1---1--1--1--1--
5-0-%-0-%-0--0--0--1---1--1---1--1--1--1--
6-0---0---0--0--0--1---1--1---1--1--1--1--

1----------------------------------------------
2----------------------------------------------
3----------------------------------------------
4-10---10---10--10--10--5---5--5---5--5--5--3--
5-10-%-10-%-10--10--10--5---5--5---5--5--5--3--
6-10---10---10--10--10--5---5--5---5--5--5--3--

1-----------------------------------------
2-----------------------------------------
3-----------------------------------------
4-0---0---0--0--0--1---1--1---1--1--1--1--
5-0-%-0-%-0--0--0--1---1--1---1--1--1--1--
6-0---0---0--0--0--1---1--1---1--1--1--1--

1----------------------------------------------
2----------------------------------------------
3----------------------------------------------
4-10---10---10--10--10--5---5--5---5--5--5--5--
5-10-%-10-%-10--10--10--5---5--5---5--5--5--5--
6-10---10---10--10--10--5---5--5---5--5--5--5--

  2nd pre-chorus

1----------------------------------------------------
2----------------------------------------------------
3----------------------------------------------------
4----10---10---10---x-x-x-x----10---10---10---8---8--
5----8--%-8--%-8--%-x-x-x-x----8--%-8--%-8--%-6-%-6--
6-0-----------------x-x-x-x-0------------------------  1X2

1------------------------------------------------
2------------------------------------------------
3------------------------------------------------
4----10---10---10---\\----10---10--8-8-8--8--8-8--
5----8--%-8--%-8----\\----8--%-8---6-6-6--6--6-6--
6-0-------------------0--------------------------

  3rd chorus

1------------------------------------------------------------------------------
2------------------------------------------------------------------------------
3------------------------------------------------------------------------------
3------------0-----------------------------------------------------------------
4-0----------0---------0------2--2-2-2--0-0-0--2-2-2--0-0-0--2-2-2--0-0-0--2-2-
5-0----------1---------1/(3)--3--3-3-3--3-3-3--3-3-3--3-3-3--3-3-3--3-3-3--3-3-
6-0----------------------------------------------------------------------------

1------------------------------------------------------------------------------
2------------------------------------------------------------------------------
3------------------------------------------------------------------------------
3------------0-----------------------------------------------------------------
4-0------0-0-0---------0------2--2-2-2--0-0-0--2-2-2--0-0-0--2-2-2--0-0-0--2-2-
5-0------1-1-1---------1/(3)--3--3-3-3--3-3-3--3-3-3--3-3-3--3-3-3--3-3-3--3-3-
6-0----------------------------------------------------------------------------

1------------------------------------------------------------
2------------------------------------------------------------
3--------------------------------------------0---------------
4-0---------------------------------------2---------------5--
5-0---------------0--0--0--0--0--0--0--3------------------5--
6-0-----------1-------------------------------------------5--

1--------------------------------------------------------------
2--------------------------------------------------------------
3----------------------------------------------0---------------
4-0---------------------------------------2-----------------5--
5-0---------------0--0--0--0--0--0--0--3-----3--------------5--
6-0-----------1---------------------------------------------5--

  outro

1------------------------------------------------------------------------------
2------------------------------------------------------------------------------
3------------------------------------------------------------------------------
4----10---10---10---8---8-8----10---10---10---8---8-8----10---10---10---8---8-8
5----8--%-8--%-8--%-6-%-6-6----8--%-8--%-8--%-6-%-6-6----8--%-8--%-8--%-6-%-6-6
6-0-------------------------0-------------------------0------------------------

1------------------------------------------------------------------------------
2------------------------------------------------------------------------------
3------------------------------------------------------------------------------
4----10---10---10---8---8-8----10---10---10---8---8-8----10---10---10---8---8-8
5----8--%-8--%-8--%-6-%-6-6----8--%-8--%-8--%-6-%-6-6----8--%-8--%-8--%-6-%-6-6
6-0-------------------------0-------------------------0------------------------

1-----------------------------------------
2-----------------------------------------
3-----------------------------------------
4----10---10---10---8---8-8----10---10----
5----8--%-8--%-8--%-6-%-6-6----8--%-8--%--


Important: The song above is NOT stored on the Chordie server. The original song is hosted at www.xguitar.com. Chordie works as a search engine and provides on-the-fly formatting. Chordie does not index songs against artists'/composers' will. To remove this song please click here.

This song is displayed as text-only. Transposing and tuning is only available for chordpro-songs.

Login - add to songbook

Rating click stars to rate

Layout
Accuracy

SHARE PAGE  




You need to log in to post comments