Life Is Real (song for Lennon)

Queen

E---15---15---15---15---etc.

B--------------------------


 GG/F#E-E-/D
E------3---------3----------0--------0--
B------3---------3----------0--------0--
G---0-----0---0-----0-----0---0----0---0
D--------------------------------0------
A---------------------------------------
E-3---------2-----------0---------------

3.Torsos in my closet, shadows from my past
7.Dream is just a pleasure dome, Love is a roulette wheel
17.Lennon is a genious, Living in ev'ry pore
 CC/BCA-7
E-----0-------0-------0-------0--
B-----1-------1-------1-------1--
G---0---0---0---0---0---0---0---0
D--------------------------------
A-3-------2-------3-------0------
E--------------------------------

4.Life is real, life is real, life is reeeal, so real
8.Life is real, life is real, life is reeeal, oh yeah
 GG/F#B-DF/CCG
E------3---------3----------2--------3---------1---------0------2
B------3---------3----------3--------2---------1---------1------2
G---0-----0---0-----0---4-----4---3-----3---2-----2---0-----0---0
D-------------------------------0-------------------------------0
A---------------------2-------------------3---------3-----------2
E-3---------2---------------------------------------------------3

In similar way the arpeggio continues...
 B-Bb+5D/AG
9.Success is my breathing space I bought it all myself
 F#7
10.I will price it I will cash it I can take it or leave it
 DC/DB-
11.Loneliness is my hiding place breastfeeding myself
 F#/A#D/AE-
12.what more can I say I have swalowed the biter pills
 GG/ADC/DDC/D
13.I can taste it I can taste it life is rea   life is real 
 F/CCF/CC
14.life is real   
Chords:
G 320033 G/F# 220033 E- 022000
E-/D xx0000 C x32010 C/B x22010
A-7 x02010 B- x24432 D xx0232
F/C x33211 Bb+5 xx433x D/A x00323
F#7 242322 C/D xx0010 F#/A# 4x4322
G/A x00022












A-7 Bb+5 C C/B C/D D F#/A# F#7 F/C G G/F#
variations - click chord images
Transpose chords:
Tuning:
Cool service:
View: Size:
A  A  A
Rating:
Layout:
  • Currently 2.5/5 Stars.
  • 1
  • 2
  • 3
  • 4
  • 5
 
Accuracy:
  • Currently 3.4/5 Stars.
  • 1
  • 2
  • 3
  • 4
  • 5
 
click stars to rate
Chordie recommends:
Learn how to play guitar at JamPlay.com
Songbook:
Login to add this song to your songbook
Support the artist
Preview/buy this song
MSN Music
Why this non-profit ad?

 
login to add comments/video/corrections