In The Lap Of The Gods

Queen

 CCdimCFCCdimCFDmAm
 live my life for you, think all my thoughts with you and only you
 DmDm7AmFmG
 Anything you ask I'd do , for you 
 CCdimCFCCdimCFDmAm
 touch your lips with mine, but in the end I leave it to the Lords
 DmDm7AmGm7
 Leave it in the lap of the gods, what more can I do
 C7Gm7
Leave it in the lap of the Gods, I leave it to you
 C
Leave it in the lap of the Gods
 Cdim/F#GmC
 Leave it in the lap of the Gods, I want you to
 Gm7C
 Leave it in the lap of the Gods
 Fm7Bb
 Leave it in the lap of the Gods
 Fm7BbFBb
 Leave it in the lap of the Gods  
 BbEb/BbBbFBbEb/BbBbFBbEb/BbBbF
 Lap  of  the Gods,     lap  of  the Gods,     lap of   the Gods  (repeat)
Chords:
 CCdimFDmAmDm7FmGGm7C7Fm7Cdim/F#
E -----0-----2-----1-----1-----0-----1-----1-----3-----3-----0-----1-----2-----
B -----1-----4-----1-----3-----1-----1-----1-----0-----6-----1-----4-----4-----
G -----0-----2-----2-----2-----2-----2-----1-----0-----3-----3-----1-----2-----
D -----2-----4-----3-----0-----2-----0-----3-----0-----3-----2-----1-----4-----
A -----3-----3-----3-----x-----0-----x-----3-----2-----5-----3-----3-----3-----
E -----x-----x-----1-----x-----x-----x-----1-----3-----3-----x-----1-----2-----

 GmBbEb/Bb
E -----3-----1-----3----------
B -----3-----3-----4----------
G -----3-----3-----3----------
D -----5-----3-----1----------
A -----5-----1-----1----------
E -----3-----x-----x----------

Listen to the song to get the timing/chord changes exactly right.
















Am Bb C C7 Cdim Cdim/F# Dm Dm7 F Fm Fm7 G Gm Gm7
variations - click chord images
Transpose chords:
Tuning:
Cool service:
View: Size:
A  A  A
Rating:
Layout:
  • Currently 3/5 Stars.
  • 1
  • 2
  • 3
  • 4
  • 5
 
Accuracy:
  • Currently 2.3/5 Stars.
  • 1
  • 2
  • 3
  • 4
  • 5
 
click stars to rate
Chordie recommends:
Learn how to play guitar at JamPlay.com
Songbook:
Login to add this song to your songbook
Support the artist
Preview/buy this song
MSN Music
Why this non-profit ad?

 
login to add comments/video/corrections