Guitar Tabs, Chords and Lyrics


The Blood Is Love   Unknown



Band Name: Queens of the Stone Age

Song Name: The Blood is Love

Tabbed by: Geezer1959

Standard Tuning  ( E A D G B E )

Intro Solo (cleanish)

|-10-12-13-12-10-12--10-12-14-15~---------------12-12-----------12------------------|
|----------------------------------14-14--14-15--------15-14-15----15-14-12-14-15-12|
|-----------------------------------------------------------------------------------|
|-----------------------------------------------------------------------------------|
|-----------------------------------------------------------------------------------|
|-----------------------------------------------------------------------------------|

|----------------------------------------------------------------------------------------|
|-11-12-14-12-11-12-12------------11-12-14-------------11-12-14------------11-12-14-12-11|
|----------------------13--13--13-----------12--12--12----------11--11--11---------------|
|----------------------------------------------------------------------------------------|
|----------------------------------------------------------------------------------------|
|----------------------------------------------------------------------------------------|

|---0---0---0---0--0-0-0-0-0-0-0-0-|
|-6---6---6---6---6-6-6-6-6-6-6-6--|
|----------------------------------|
|----------------------------------|
|----------------------------------|
|----------------------------------|

Heavy Distortion
|------------------------------------------------------------------------------|
|------------------------------------------------------------------------------|
|------------------------------------------------------------------------------|
|---12-12-----12-12-----12-12-----12-12-----8-8-----11-11-----8-8-----11-11----|
|---10-10-----10-10-----10-10-----10-10-----9-9-----9--9------9-9-----9--9-----|
|-0-------0-0-------0-0-------0-0-------0-0-----0-0-------0-0-----0-0-------0-0|

|-----------------------------------------------------------------|
|-----------------------------------------------------------------|
|---------------------------------2-2-----0-0-----2-2-----0-0-----|
|-7-7-----7-7-----7-7-----7-7-----2-2-----2-2-----2-2-----2-2-----|
|-5-5-----5-5-----5-5-----5-5-----4-4-----4-4-----4-4-----4-4-----|
|-----0-0-----0-0-----0-0-----0-0-----0-0-----0-0-----0-0-----0-0-|

|------------------------------------------------------------|
|------------------------------------------------------------|
|5-5-----0-0-----5-5-----0-0---------------------------------|
|5-5-----2-2-----5-5-----2-2-----2-2-----0-0-----2-2-----0-0-|
|3-3-----3-3-----3-3-----3-3-----1-1-----1-1-----1-1-----1-1-|


Important: The song above is NOT stored on the Chordie server. The original song is hosted at www.xguitar.com. Chordie works as a search engine and provides on-the-fly formatting. Chordie does not index songs against artists'/composers' will. To remove this song please click here.

This song is displayed as text-only. Transposing and tuning is only available for chordpro-songs.

Login - add to songbook

Rating click stars to rate

Layout
Accuracy

SHARE PAGE  




You need to log in to post comments