Guitar Tabs, Chords and Lyrics


Broken Box   Unknown



Artist: Queens of the Stone Age
Song: Broken Box
Album: Lullabies To Paralyze - 2005

Can be played in standard. Some stuff will just sound an octave higher.


Intro

E|-----------------------------------|
B|-----------------------------------|
G|-----------------------------------|
D|-----------------------------------| X 2
A|-----------------------------------|
E|--3h5-5-5-3h5-5-5-3h5-5-5-3h5-5-5--|

Verse 1

E|-----------------------------------|
B|-----------------------------------|
G|-----------------------------------|
D|-----------------------------------| X 2
A|-----------------------------------|
E|--3h5-5-5-3h5-5-5-3h5-5-5-3h5-5-5--|

E|-----------------------------------|
B|-----------------------------------|
G|-----------------------------------|
D|-----------------------------------|
A|--3h5-5-5-3h5-5-5-3h5-5-5-3h5-5-5--|
E|-----------------------------------|

E|-----------------------------------|
B|-----------------------------------|
G|-----------------------------------|
D|-----------------------------------| X2
A|-----------------------------------|
E|--3h5-5-5-3h5-5-5-3h5-5-5-3h5-5-5--|

E|-----------------------------------|
B|-----------------------------------|
G|-----------------------------------|
D|-----------------------------------|
A|--1h3-3-3-1h3-3-3-1h3-3-3-1h3-3-3--|
E|-----------------------------------|

E|-----------------------------------|
B|-----------------------------------|
G|-----------------------------------|
D|-----------------------------------|
A|-----------------------------------|
E|--3h5-5-5-3h5-5-5-3h5-5-5-3h5-5-5--|

Chorus

E|-------------------------------------------------------------------|
B|-------------------------------------------------------------------|
G|-------------------------------------------------------------------|
D|-------------------------------------------------------------------| X 2
A|----------------------------------3h5-5-5-3h5-5-5-3h5-5-5-3h5-5-5--|
E|--3h5-5-5-3h5-5-5-1h3-3-3-1h3-3-3----------------------------------|

E|-------------------------------------------------------------------|
B|-------------------------------------------------------------------|
G|-------------------------------------------------------------------|
D|-------------------------------------------------------------------| X 2
A|----------------------------------------------------------3h5-5-5--|
E|--3h5-5-5-3h5-5-5-6h8-8-8-6h8-8-8-1h3-3-3-1h3-3-3-1h3-3-3----------|

							    |......| - Sounds an octave lower on album.

Break

E|-----------------------------------|
B|-----------------------------------|
G|-----------------------------------|
D|-----------------------------------|
A|-----------------------------------|
E|--3h5-5-5-3h5-5-5-3h5-5-5-3h5-5-5--|

E|--------------------------------------------------------------------|
B|--------------------------------------------------------------------|
G|--------------------------------------------------------------------|
D|--------------------------------------------------------------------| X 3
A|---5-5-5-5-4-4-4-4-3-3-3-3------------------------------------------|
E|---------------------------3-3-3-3-3h5-5-5-3h5-5-5-3h5-5-5-3h5-5-5--|
  PM................................

E|------------------------------|
B|------------------------------|
G|------------------------------|
D|------------------------------|
A|---5-5-5-5-4-4-4-4-3-3-3-3----|
E|---------------------------3--|

Verse 2
E|--------------------------------------|
B|--------------------------------------|
G|--------------------------------------|
D|--5-7-7-7--5-7-7-7--5-7-7-7--5-7-7-7--| X 4
A|--5-7-7-7--5-7-7-7--5-7-7-7--5-7-7-7--|
E|--3-5-5-5--3-5-5-5--3-5-5-5--3-5-5-5--|

E|--------------------------------------|
B|--------------------------------------|
G|--5-7-7-7--5-7-7-7--5-7-7-7--5-7-7-7--|
D|--5-7-7-7--5-7-7-7--5-7-7-7--5-7-7-7--|
A|--3-5-5-5--3-5-5-5--3-5-5-5--3-5-5-5--|
E|--------------------------------------|

E|--------------------------------------|
B|--------------------------------------|
G|--------------------------------------|
D|--5-7-7-7--5-7-7-7--5-7-7-7--5-7-7-7--| X 2
A|--5-7-7-7--5-7-7-7--5-7-7-7--5-7-7-7--|
E|--3-5-5-5--3-5-5-5--3-5-5-5--3-5-5-5--|

E|--------------------------------------|
B|--------------------------------------|
G|--3-5-5-5--3-5-5-5--3-5-5-5--3-5-5-5--|
D|--3-5-5-5--3-5-5-5--3-5-5-5--3-5-5-5--|
A|--1-3-3-3--1-3-3-3--1-3-3-3--1-3-3-3--|
E|--------------------------------------|

E|--------------------------------------|
B|--------------------------------------|
G|--------------------------------------|
D|--5-7-7-7--5-7-7-7--5-7-7-7--5-7-7-7--|
A|--5-7-7-7--5-7-7-7--5-7-7-7--5-7-7-7--|
E|--3-5-5-5--3-5-5-5--3-5-5-5--3-5-5-5--|

Repeated Lead Lick - Thanks to looney7
E|--------------------------------------|
B|----15b(16.5)-15-14~------------------|
G|--------------------------------------|
D|--------------------------------------| X Alot
A|--------------------------------------|
E|--------------------------------------|

Chorus 2 - Play power chords off of single notes from first chorus.

End
E|--------------------------------------|
B|--------------------------------------|
G|--------------------------------------|
D|--5-7-7-7--5-7-7-7--5-7-7-7--5-7-7-7--| X 4
A|--5-7-7-7--5-7-7-7--5-7-7-7--5-7-7-7--|
E|--3-5-5-5--3-5-5-5--3-5-5-5--3-5-5-5--|



Important: The song above is NOT stored on the Chordie server. The original song is hosted at www.xguitar.com. Chordie works as a search engine and provides on-the-fly formatting. Chordie does not index songs against artists'/composers' will. To remove this song please click here.

This song is displayed as text-only. Transposing and tuning is only available for chordpro-songs.

Login - add to songbook

Rating click stars to rate

Layout
Accuracy

SHARE PAGE  




You need to log in to post comments