Guitar Tabs, Chords and Lyrics


Skin on Skin   Unknown



Band: Queens of the Stone Age
Song: Skin On Skin
Album: Lullabies to Paralyze

 = natural harmonic

 ^
 5  = wah

 Intro/Verses 0:00
E:----------------------------------------
G:----------------------------------------
B:----------------------------------------
D:--6~~-----------------------------------
A:--6~~-----------------------------------
E:--4~~-3-4-5-4----3-4-5-4----
  There are a few fills and differences which are just some random bends and stuff with the wah pedal

 Chorus/Bridge/I Dono 1:07
E:---------------------------------------
G:---------------------------------------
B:---------------------------------------
D:---------------------------------------
A:----------^-^----------^-^-------------
E:--3-4-5-5-5-5--3-4-5-4-4-4-------------


 Solo 1:38
E:-----------^^^^------^^------------------------------------
B:--7-8-9-7-999999-7-10b(12)-8~-7h8------------------------7-
G:----------------------------------8~-8--8-9--8--9--8--9-8--
D:--------------------------------------10------10----10-----
A:-----------------------------------------------------------
E:-----------------------------------------------------------
        ^ ^^      ^        ^^
E:------x-11b(12)-x-------11b(12)-11-11-9------------------------
B:----6-x---------x9h11p9-----------------11~-11b(12)-etc.-------
G:-6h8-------------------------------------------------mad-------
D:------------------------------------------------------wah------
A:-------------------------------------------------------for-a---
E:--------------------------------------------------------while--
  This a rough go at the solo. Its just mad wah and bends around this general shape.
  Its hard to tab it perfectly because it seems like it was just a very spur of the


Important: The song above is NOT stored on the Chordie server. The original song is hosted at www.xguitar.com. Chordie works as a search engine and provides on-the-fly formatting. Chordie does not index songs against artists'/composers' will. To remove this song please click here.

This song is displayed as text-only. Transposing and tuning is only available for chordpro-songs.

Login - add to songbook

Rating click stars to rate

Layout
Accuracy

SHARE PAGE  




You need to log in to post comments