Guitar Tabs, Chords and Lyrics


This Lullaby  Unknown

[-----]                                     
    [Em]                           [Em]      
E |-------------------|      |-------------------|
B |-------------------|      |-12----------------|
G |-------12-------12-|      |-12----------------|
D |----14-------14----| x3   |-14----------------|
A |----------14-------|      |-14----------------|
E |-12----------------|      |-12----------------|



Verse 1
-------


    [Em]                    [B]            [B] [Em] 
E |-------------------|-------------------|-------------------|-------------------|
B |-------------------|-------------------|-------------------|-------------------|
G |-------12-------12-|-------8--------8--|-------8-----------|-------12-------12-|
D |----14-------14----|----9--------9-----|----9--------9-----|----14-------14----| x2
A |----------14-------|----------9--------|----------9----10--|----------14-------|
E |-12----------------|-7-----------------|-7-----------------|-12----------------|


    [G]                    [D]            [C] [B] 
E |-------------------|-------------------|-------------------|----------7--------|
B |-------12-------12-|-------------------|-------------------|-------------------|
G |----12-------12----|-------11-------11-|-------9-----------|-------8-----------|
D |----------12-------|----12-------12----|----10-------10----|----9--------------|
A |-10----------------|----------12-------|----------10-------|-------------------|
E |-------------------|-10----------------|-8--------------10-|-7-----------------|


    [Em]                    [B]            [Em] 
E |-------------------|-------------------|-------------------|-12----------------|
B |-------------------|-------------------|----------12-------|-------------------|
G |-------12-------12-|-------8-----------|-------12----12----|-------------------|
D |----14-------14----|----9--------9-----|----14-------------|-------------------|
A |----------14-------|----------9-----10-|-------------------|-------------------|
E |-12----------------|-7-----------------|-12-------------12-|-12----------------|



Verse 2
-------


    [Em]                    [B]            [B] [Em] 
E |-------------------|-------------------|-------------------|-------------------|
B |-------------------|-------------------|-------------------|-------------------|
G |-------12-------12-|-------8--------8--|-------8-----------|-------12-------12-|
D |----14-------14----|----9--------9-----|----9--------9-----|----14-------14----| x2
A |----------14-------|----------9--------|----------9----10--|----------14-------|
E |-12----------------|-7-----------------|-7-----------------|-12----------------|


    [G]                    [D]            [C] [B] 
E |-------------------|-------------------|-------------------|----------7--------|
B |-------12-------12-|-------------------|-------------------|-------------------|
G |----12-------12----|-------11-------11-|-------9-----------|-------8-----------|
D |----------12-------|----12-------12----|----10-------10----|----9--------------|
A |-10----------------|----------12-------|----------10-------|-------------------|
E |-------------------|-10----------------|-8--------------10-|-7-----------------|


    [Em]                    [B]            [Em] 
E |-------------------|-------------------|-------------------|-12----------------|
B |-------------------|-------------------|-------------------|-------------------|
G |-------12-------12-|-------8--------8--|-------12-------12-|-------------------|
D |----14-------14----|----9--------9-----|----14-------14----|-------------------|
A |----------14-------|----------9--------|----------14-------|-------------------|
E |-12----------------|-7-----------------|-12----------------|-12----------------|



- DRybes

Important: The song above is NOT stored on the Chordie server. The original song is hosted at www.xguitar.com. Chordie works as a search engine and provides on-the-fly formatting. Chordie does not index songs against artists'/composers' will. To remove this song please click here.

Text color:
Chord color:
Chord grids: 
Font size:    
Page size: 

B C D Em G
variations - click chord images

Login - add to songbook

Transpose chords

Tuning

Rating click stars to rate

Layout
Accuracy

SHARE PAGE  




You need to log in to post comments