Guitar Tabs, Chords and Lyrics


How to Handle a Rope   Unknown



Queens of the Stone Age - How to Handle a Rope


tabbed by;Tim ( sonic_solution@t-online.de ) or Webside; ( http://Chill.to/Tim )



Info zum Tunning; Um die Gitarre 2 Töne herunter zu stimmen braucht man extrem harte saiten einfacher ist es einfach im Normal Tuning zu spielen ( also z.b bei diesem Tab bei allen Akkorden 2 Noten runter,d.h 4 Bünde!!!!!!!!!!! also z.b ein A wäre dann im Normalen Tuning G!!!!!! ) Beispiel siehe unten!!!!



Main Riff  Beispiel für Normal Tunning!!!!!!

e||--------------------------||
B||--------------------------||
G||--------------------------||
D||--3----1----6---8~--------||
A||--3----1----6-------------||
E||--1----0----4-------------||

blabla und so weiter!




Tuning - C F Bb Eb G C



Main riff:
------------------------------------------|
------------------------------------------|
------------------------------------------|
---7-7-7-7-7-7-5-10-10-10-10-10-10--12b---|
---7-7-7-7-7-7-5-10-10-10-10-10-10--------|
---5-5-5-5-5-5-3--8--8--8--8--8--8--------|



chorus:
--------------------------------------------------------------------|
--------------------------------------------------------------------|
--------------------------------------------------------------------|
---7-7-7-7-7-7--10-10-10-10-10-10--11-11-11-11-11-11--5-5-5-5-5-5---|
---7-7-7-7-7-7--10-10-10-10-10-10--11-11-11-11-11-11--5-5-5-5-5-5---|
---5-5-5-5-5-5---8--8--8--8--8--8---9--9--9--9--9--9--3-3-3-3-3-3---|



outro:
-------------------------------------|
-------------------------------------|
-------------------------------------|
---7-7-9-9-11-11-13-13-15-15-15-15---|
---7-7-9-9-11-11-13-13-15-15-15-15---|
---5-5-7-7--9--9-11-11-13-13-13-13---|

solo:
------------------------------------------------------------------------|
---16b-16b--16-16-14-16-14--16-14-12-14----12-14b--14b-12----14---------|
-------------------------------------------14----------------15----14---|
------------------------------------------------------------------------|
------------------------------------------------------------------------|
------------------------------------------------------------------------|

--------------------------------------------------------------|
--------------------------------------------------------------|
--------------------------------------------------------------|
---12-14----12-15-14-12----12-14-12---------------------------|
---------14-------------14----------14-12-14------------------|
---------------------------------------------12--12--10--10---|

---------------------------------------|
---------------------------------------|
---------------------------12-14-16b---|
---------------------12-14-------------|
------------12-14-12~------------------|
---12-14-12----------------------------|



Lyrics:

main riff:
Too late to think or filter anymore
A bitter pill to swallow
Maybe you’re in a blanket haze of ephedrine
I’m wonderin where the hell you been
So come on and right this wrong the rope

chorus:
You got it all right
You got a feeling
I’d rather open up my wrist, let it go
You got it all right
You got a feeling
Cause devils and ropes around your neck
Cursing them all
And you can’t hear it
Can’t hear it

main riff:
Ain’t got a mind to deal with anymore
Sabatuer, infiltrator, and maybe more
If you’re not blind and deaf, how can we pollute your head?
So come on and right this wrong the rope

chorus:
And I got it all right
I got a feeling
You’d rather open up your wrist, let it go
I got it all right, yeah
I got a feeling
Cause devils and ropes around my neck can’t even know
Cause they can’t hear it
main riff:
Can't hear it



Important: The song above is NOT stored on the Chordie server. The original song is hosted at www.xguitar.com. Chordie works as a search engine and provides on-the-fly formatting. Chordie does not index songs against artists'/composers' will. To remove this song please click here.

This song is displayed as text-only. Transposing and tuning is only available for chordpro-songs.

Login - add to songbook

Rating click stars to rate

Layout
Accuracy

SHARE PAGE  




You need to log in to post comments