Guitar Tabs, Chords and Lyrics


Quick And To The Pointless   Unknown



Quick and to the Pointless 

Tuning - C F Bb Eb G C 

verses 1 and 2 
-------------------| 
-------------------| 
-------------------| 
---6-7-7-7-7-7-7---| 
---6-7-7-7-7-7-7---| 
---4h5-5-5-5-5-5---| 

chorus 
-------------------------------------| 
-------------------------------------| 
-------------------------------------| 
---9-9-9-9-9-9-9-9-8-8-8-8-8-8-8-8---| 
---9-9-9-9-9-9-9-9-8-8-8-8-8-8-8-8---| 
---7-7-7-7-7-7-7-7-6-6-6-6-6-6-6-6---| 
oh, baby, baby, you're so sweet 

palm-mute the second verse 

verse 3 
-----------------------------------| 
-----------------------------------| 
-----------------------------------| 
---6-7-7-7-7-7-----6-7-7-7-7-7-7---| 
---6-7-7-7-7-7-----6-7-7-7-7-7-7---| 
---4h5-5-5-5-5-----4h5-5-5-5-5-5---| 
pm---------------------------------| 

And that's it! Questions, improvements or corrections to: pinkyandthebrain14@hushmail.com


Important: The song above is NOT stored on the Chordie server. The original song is hosted at www.xguitar.com. Chordie works as a search engine and provides on-the-fly formatting. Chordie does not index songs against artists'/composers' will. To remove this song please click here.

This song is displayed as text-only. Transposing and tuning is only available for chordpro-songs.

Login - add to songbook

Rating click stars to rate

Layout
Accuracy

SHARE PAGE  




You need to log in to post comments