Guitar Tabs, Chords and Lyrics


Hangin' Tree   Unknown



queens of the stone age
hangin tree tab


Intro riff:
e-------------------
b-------------------
g-------------------
d-------------------
a-3p0-0-3p0-0-3p0-5-
e-------------------

Intro Lead:
e----19---19---19--
b------------------
g-14--------14--14- countinue something like this.
d------------------
a------------------
e------------------

Verse:
e-------many times---- -----x2----- -----------------------
b--------------------- ------------ -----------------------
g--------------------- ------------ ------------4--4-4-4-4-
d--------------------- -3--3-3-3-3- -2--2-2-2-2-4--4-4-4-4-
a-3p0-0-3p0-0-3p0-0-3- -3--3-3-3-3- -2--2-2-2-2-2--2-2-2-2-
e--------------------- -1--1-1-1-1- -0--0-0-0-0------------

Verse Lead:
e-------------------------------
b-------------------------------
g--------------14~--------------
d-14~---/17~--------------------
a-------------------------------
e-------------------------------

Chorus: (all chords are powerchords)
C,B,D,C# -repeat
C,B

Chorus Lead:
Follow the root of the chords an octave above.

Solo "rythm": -this is truly wacked and most likely 30% correct.
e----------------------------------------------------------------------
b----------------------------------------------------------------------
g----------------------------------------------------------------------
d-2--7-11-11-11--------------------10-10-13--13-10-----------10-10-12--
a-0--0----------10-10-12--12-12-12------------------12-12-12-----------
e----------------------------------------------------------------------

Play a couple of Am7 at the end of the solo. (x,0,10,12,x,x)


Solo: (Improvise from this)
e----------------------------------------------------------------------
b-/14~~13~~------------------------------------------------------------
g----------14~-12h14-14~-141414----------------------------------------
d-------------------------------11~~10~~-------------------------------
a---------------------------------------12-10-10h12-12~~-10-10h12-12~~-


Important: The song above is NOT stored on the Chordie server. The original song is hosted at www.xguitar.com. Chordie works as a search engine and provides on-the-fly formatting. Chordie does not index songs against artists'/composers' will. To remove this song please click here.

This song is displayed as text-only. Transposing and tuning is only available for chordpro-songs.

Login - add to songbook

Rating click stars to rate

Layout
Accuracy

SHARE PAGE  




You need to log in to post comments