Chordie logo

Mosquito Song   Unknown



Artist: Queens Of The Stone Age
  Song: Mosquito Song
Tabber: Joe

Standard Tuning EADGBE

E|------4---------3----------1--------|
B|------4---------3----------1--------|
G|------5---------4----------2--------|
D|--------6---------5----------3------|
A|----6---------5----------3----------|
E|--4---------3----------1------------|

E|------------------------------------|
B|-8h9--------------------------------|
G|------8h10--------------------------|
D|-----------8h10---6-----------------|
A|------------------------------------|


Important: The song above is NOT stored on the Chordie server. The original song is hosted at www.xguitar.com. Chordie works as a search engine and provides on-the-fly formatting. Chordie does not index songs against artists/composers will. To remove this song please click here.

This song is displayed as text-only. Transposing and tuning is only available for chordpro-songs.

Login - add to songbook

Rating click stars to rate

Layout
Accuracy

SHARE PAGE  



You need to log in to post comments

tanman412 (report)

This is wrong