Guitar Tabs, Chords and Lyrics


The Sky Is Fallin'  Unknown

e|------------------|------------------|------------------|------------------|


B|------------------|------------------|------------------|------------------|


G|8-10--------------|8-10--------------|8-10-------------8|------------------|

D|-----10-11-10-11-8|-----10-11-10~----|-----10-11-10-11--|11-10-8--8-10-11~-| (x2)
A|------------------|------------------|------------------|------------------|
E|------------------|------------------|------------------|------------------|
  [D#5]                   [C#5]               [D#5] [C#5] 
Main riff (all x2)

e|----------------------|----------------------|----------------|--------------------|
B|----------------------|----------------------|----------------|--------------------|
G|----------------------|----------------------|5-5-5-5--6-6-6-6|10-10-10-10--6-6-6-6|
D|8-6-8-6-8--8-6-8-6-8--|8-6-8-6-8--8-6-8-6-8--|5-5-5-5--6-6-6-6|10-10-10-10--6-6-6-6|
A|8-6-8-6-8--8-6-8-6-8--|8-6-8-6-8--8-6-8-6-8--|3-3-3-3--4-4-4-4|-8--8--8--8--4-4-4-4|
E|6-4-6-4-6--6-4-6-4-6--|6-4-6-4-6--6-4-6-4-6--|----------------|--------------------|



Verse 1 (the same as main riff but this lasts twice)

The sky is fallin', human race that we are
Has left me crawlin', staring straight at the sun
All in a moment, I notice every dog has his day
I paid attention, cost me so much to


Pre-chorus 1

[G#5]hate for so [G5]long I [F#5]saw only [Bb5]wrong
but [G#5]now to re[G5]mind it's a [F#5]waste of [Bb5]time  [Bb5]

Chorus

e|------------------------|----------------------|
B|------------------------|----------------------|
G|------------------------|----------------------|
D|8-6-8-10-8--8-6-8-10-8--|6-4-6-8-6--6-4-6-8-6--|   (x2)
A|8-6-8-10-8--8-6-8-10-8--|6-4-6-8-6--6-4-6-8-6--|
E|6-4-6--8-6--6-4-6--8-6--|4-2-4-6-4--4-2-4-6-4--|

x________(x2)__________x x________(x2)________x

Close your eyes and see the sky is fallin'


(repeat intro only x1 the main riff again)


Verse 2 (the same as 1)

I wanted something, nothing blank I don't know
It's hard deflecting, stones are easy to throw
All in a moment I noticed hours days left behind
One wasted useless, selfless none of a


Pre-chorus 2

[G#5]kind for so [G5]long I [F#5]saw only [Bb5]wrong but
[G#5]now to remind [G5]not to go [F#5]back to the [Bb5]low

that has [F5]drained my [F#5]life so [B5]long   (x3)
that has [F5]drained...
(Repeat chorus x2)


Solo

e|-------------------|-------------|---------------9~-11---|------------------------|
B|-------------------|9~-----------|-----7-9~-9-11-------11|-----------------------9|
G|8~-10-11-8~-8-10-11|--11p10p8p7~-|8-10-------------------|10-10h12p10-8-10h11p10--|
D|-------------------|-------------|-----------------------|------------------------|
A|-------------------|-------------|-----------------------|------------------------|
E|-------------------|-------------|-----------------------|------------------------|

  [D#5]                    [F5]              [D#5] [F5] 
e|------------------------------------|----------------|-------------|-------10---|
B|11---------------------9--11-9-11-12|-------------9~-|-----------9-|11(x9)------|
G|---10h11p10-8-10h11p10--------------|10~-10h11p10----|8--10--11----|------------|
D|------------------------------------|----------------|-------------|------------|
A|------------------------------------|----------------|-------------|------------|
E|------------------------------------|----------------|-------------|------------|

  [D#5]                                  [F5] [D#5] [F5] 

(Repeat chorus x2)

Important: The song above is NOT stored on the Chordie server. The original song is hosted at www.xguitar.com. Chordie works as a search engine and provides on-the-fly formatting. Chordie does not index songs against artists'/composers' will. To remove this song please click here.

Text color:
Chord color:
Chord grids: 
Font size:    
Page size: 

B5 Bb5 C#5 D#5 F#5 F5 G#5 G5
variations - click chord images

Login - add to songbook

Transpose chords

Tuning

Rating click stars to rate

Layout
Accuracy

SHARE PAGE  




You need to log in to post comments