Guitar Tabs, Chords and Lyrics


Anarchy-X    Queensryche



Standard tuning

--------------------------------1-------------------------------1-------------|
--------------------------1---1---------------------------------1------1---1--|
-0-----5-----------0----0---0-------2---------0-----5-----------0----0---0----|
-3-----3--5---7----3--------------------3-----3-----3--5---7----3-------------|
-3--------3-/-5----3--------------------5-----3--------3-/-5----3-------------|
-1-----------------1--------------------5-----1-------------------------------|


-1---------------------------------1----------------------------------1-------|
-----------------------------------1----------------------------------1-------|
---------------------0-------------0-----0----5------------0-----0----0-------|
----7----5-----------3-------------3----------3--5---7-----3----------3-----5-|
----7----5-----------3-------------3-------------3-/-5-----3----------3-----5-|
----5----3-----------1-------------------------------------1----------------3-|
               Dr. X Speaks- Csus held longer

------------------------------10----------------------------------------------|
-13--12--10--13--12--10---12------13v--------12-13----13--12--10--13--12--10--|
-10--12--14--10--12--14-----------14v---------9-10----12--12--14--12--12--14--|
---------------------------9--------------------------------------------------|
------------------------------------------------------------------------------|
------------------------------------------------------------------------------|


--------------------------19-20-19-17h19p17-/-15v---20b22r---19-20-17-19-15---|
-15b17r15--17-18-20-18-20-----------------------------------------------------|
------------------------------------------------------------------------------|
------------------------------------------------------------------------------|
------------------------------------------------------------------------------|
------------------------------------------------------------------------------|


-17---------------------------------------------------------------------------|
------------------------------------------------------------------------------|
----16------------------------------------------------------------------------|
----------10--7--9------------9-----------------------------------------------|
-----9----10--7--9----10--7---9----10--12--9----10--7---------7---9---10---12-|
-----7----8---5--7----8---5---7----8---10--7----8---5--7--11------------------|
                                                       keyboard duo w/guitar

------------------------------------------------------------------------------|
------------------------------------------------------------------------------|
------------------------------------------------------------------------------|
-----------/16v---------------------------------------------------------------|
-14---15----------------------------------------------------------------------|


Important: The song above is NOT stored on the Chordie server. The original song is hosted at www.xguitar.com. Chordie works as a search engine and provides on-the-fly formatting. Chordie does not index songs against artists'/composers' will. To remove this song please click here.

This song is displayed as text-only. Transposing and tuning is only available for chordpro-songs.

Login - add to songbook

Rating click stars to rate

Layout
Accuracy

SHARE PAGE  




You need to log in to post comments