"yes"; ?> Enough is Enough by Rage - guitar chords, guitar tabs and lyrics - chordie

Enough is Enough

Rage


"Enough is Enough" (Rage, Trapped!)
Transcripted by Matt Johnsen (matt@chesco.com)
Unlike "Refuge," which is very straight-forward, this songs has lots of twists and turns, which made it difficult to transcribe the parts and then just lay them out. For this song, play each riff in order going down, and if you need to repeat a part exactly, I will tell you so. The solos are right on in most spots, but two quick passages gave me some trouble. They are at least very close to Manni's solos, though the first might actually be right, while the second is definitely an approximation. It's a tricky song, but have fun learning it!
Tune all strings down 1 step (I Think!)
INTRO MAIN RIFF (hold last chord) play 4 times to double bar
--------|----------|-----------------------|-----------------------| --------|----------|-----------------------|-----------------------| --3-----|----5-----|-----------------------|-----------------------| --3--3--|----5-----|--------------5-4-2-0--|--------------5-4-2-0--| --1--3--|----3-----|-----------------------|-----------------------| -----1--|----------|--0-0-2-3-0-2----------|--0-0-2-3-0-3----------|
AH -----------------------|---------------|| -----------------------|---------------|| -----------------------|---7--7--2-----|| --------------5-4-2-0--|---7--7--2-----|| -----------------------|---5--5--0-----|| --0-0-2-3-0-3----------|------------3--|| RHYTHM 1 play twice to double bar, accompanied by LEAD 1
-----------------|-------------------------|-------------------------| -----------------|-------------------------|-------------------------| -----------------|-------------------------|-------------------------| -3-3-------------|-------------------------|-------------------------| -3-3-------------|-3-3-3-3-3-3-3-3-3-3-3-3-|-5-5-5-5-5-5-5-5-5-5-5-5-| -1-1-1-1-1-1-1-1-|-------------------------|-------------------------|
---------------------| ---------------------| -------------------5-| -------------------5-| -1-1-1-1-1-1-1-1-1-3-| ---------------------|
-----------------|-------------------------|-------------------------|------|| -----------------|-------------------------|-------------------------|------|| -----------------|-------------------------|-------------------------|-3--5-|| -3-3-------------|-------------------------|-------------------------|-3--5-|| -3-3-------------|-3-3-3-3-3-3-3-3-3-3-3-3-|-0-0-0-0-0-0-0-0-0-0-0-0-|-1--3-|| -1-1-1-1-1-1-1-1-|-------------------------|-------------------------|------||
LEAD 1 play twice to double bar, accompanying RHYTHM 1 H P ----------|------------|------------|------------|----------|---------------| ----------|------------|------------|------------|----------|---------------| ----------|------------|----------5-|------------|----------|---------------| --------7-|-5----------|-7--7--7----|-7--8-----5-|--------7-|-5-------------| -8--8-----|----8--5----|------------|-------8----|--8--8----|----8--5-8-5---| ----------|----------8-|------------|------------|----------|-------------8-|
---------|---------|| ---------|---------|| ---------|--10--12-|| -7--5----|--8---10-|| -------8-|--8---10-|| ---------|---------||
VERSE
-----------------------|-----------------------|-----------------------| -----------------------|-----------------------|-----------------------| -----------------------|-----------------------|-----------------------| --------------5-4-2-0--|--------------5-4-2-0--|--------------5-4-2-0--| -----------------------|-----------------------|-----------------------| --0-0-2-3-0-2----------|--0-0-2-3-0-3----------|--0-0-2-3-0-3----------|
---------------| ---------------| ---7--7--2-----| ---7--7--2-----| ---5--5--0-----| ------------3--|
-----------------------|-----------------------|-----------------------| -----------------------|-----------------------|-----------------------| -----------------------|-----------------------|-----------------------| --------------5-4-2-0--|--------------5-4-2-0--|--------------5-4-2-0--| -----------------------|-----------------------|-----------------------| --0-0-2-3-0-2----------|--0-0-2-3-0-3----------|--0-0-2-3-0-3----------|
-----|----------| -----|----------| --4--|--2-----5-| --4--|--2--5--5-| --2--|--0--5--3-| -----|-----3----|
-----------------------|-----------------------|-----------------------| -----------------------|-----------------------|-----------------------| -----------------------|-----------------------|-----------------------| --------------5-4-2-0--|--------------5-4-2-0--|--------------5-4-2-0--| -----------------------|-----------------------|-----------------------| --0-0-2-3-0-2----------|--0-0-2-3-0-3----------|--0-0-2-3-0-3----------|
---------------| ---------------| ---7--7--2-----| ---7--7--2-----| ---5--5--0-----| ------------3--|
-----------------------|-----------------------|-----------------------| -----------------------|-----------------------|-----------------------| -----------------------|-----------------------|-----------------------| --------------5-4-2-0--|--------------5-4-2-0--|--------------5-4-2-0--| -----------------------|-----------------------|-----------------------| --0-0-2-3-0-2----------|--0-0-2-3-0-3----------|--0-0-2-3-0-3----------|
-----|----------|-----| -----|----------|-----| --4--|--2-------|---5-| --4--|--2--5--4-|---5-| --2--|--0--5--4-|---3-| -----|-----3--2-|-----|
PRE-CHORUS AH Slide Bend----Release -------|-------|--------------|-----|-------|-------|-----------|----------| -------|-------|--------------|-----|-------|-------|-----------|----------| ---3---|-------|---5----------|--5--|---3---|-------|--5--------|----------| ---3---|---3---|---5-----^----|-----|---3---|---3---|--5---^----|-----^----| ---1---|---3---|---3--(0)_3---|-----|---1---|---3---|--3--3_(5)-|--(5)_3---| -------|---1---|--------------|-----|-------|---1---|-----------|----------|
CHORUS
-----------|-------|-------|-------|-------|-------|-------| -----------|-------|-------|-------|-------|-------|-------| -----------|---5---|---7---|---3---|-------|---5---|---2---| ---3---3---|---5---|---7---|---3---|---3---|---5---|---2---| ---3---3---|---3---|---5---|---1---|---3---|---3---|---0---| ---1---1---|-------|-------|-------|---1---|-------|-------|
--------------------------| --------------------------| --------------------------| --------------------------| --1-1-1-1-1-1-3-3-3-3-3-3-| --------------------------|
-----------|-------|-------|-------|-------|-------|-------|----------| -----------|-------|-------|-------|-------|-------|-------|----------| -----------|---5---|---7---|---3---|-------|---5---|---2---|--3--3--5-| ---3---3---|---5---|---7---|---3---|---3---|---5---|---2---|--3--3--5-| ---3---3---|---3---|---5---|---1---|---3---|---3---|---0---|--1--1--3-| ---1---1---|-------|-------|-------|---1---|-------|-------|----------|
ending 1 hold-------- ----------------|---------------|----------------||-------|--------| ----------------|---------------|----------------||-------|--------| ---7---10---5---|---7---3---5---|---7---10---9---||--7----|----(7)-| ---7---10---5---|---7---3---5---|---7---10---9---||--7----|----(7)-| ---5---8----3---|---5---1---3---|---5---8----7---||--5----|----(5)-| ----------------|---------------|----------------||-------|--------|
PLAY THIS RIFF TWICE
-----------------------|-----------------------|-----------------------| -----------------------|-----------------------|-----------------------| -----------------------|-----------------------|-----------------------| --------------5-4-2-0--|--------------5-4-2-0--|--------------5-4-2-0--| -----------------------|-----------------------|-----------------------| --0-0-2-3-0-2----------|--0-0-2-3-0-3----------|--0-0-2-3-0-3----------|
---------------| ---------------| ---7--7--2-----| ---7--7--2-----| ---5--5--0-----| ------------3--|
PLAY : VERSE, PRECHORUS, CHORUS (substituting ending 1 for ending 2 below)
chorus ending 2 hold---- hold---- hold---- hold---- -------|-------|-----|-------|-----|-------|-----|-------|-----|-----|-----| -------|-------|-----|-------|-----|-------|-----|-------|-----|-----|-----| ----2--|--(2)--|--2--|--(2)--|--2--|--(2)--|--2--|--(2)--|--2--|--2--|--2--| ----2--|--(2)--|--2--|--(2)--|--2--|--(2)--|--2--|--(2)--|--2--|--2--|--2--| ----0--|--(0)--|--0--|--(0)--|--0--|--(0)--|--0--|--(0)--|--0--|--0--|--0--| -------|-------|-----|-------|-----|-------|-----|-------|-----|-----|-----|
-----|-----|-----|-----|-----| -----|-----|-----|-----|-----| --2--|--2--|--2--|--2--|--2--| --2--|--2--|--2--|--2--|--2--| --0--|--0--|--0--|--0--|--0--| -----|-----|-----|-----|-----|
-------------------------|-------------------------| -------------------------|-------------------------| -------------------------|-------------------------| -------------------------|-------------------------| -0-0-0-0-0-0-0-0-0-0-0-0-|-0-0-0-0-0-0-0-0-0-0-0-0-| -------------------------|-------------------------|
SOLO RHYTHM 1
repeated later to double bar
----------------------|-------------------------|----------------------| ----------------------|-------------------------|----------------------| -7--------------------|-------------------------|-3--------------------| -7--------------------|-------------------------|-3--------------------| -5--5-5-5-5-5-5-5-5-5-|-5-5-5-5-5-5-5-5-5-5-5-5-|-1--1-1-1-1-1-1-1-1-1-| ----------------------|-------------------------|----------------------|
-------------------------| -------------------------| -------------------------| -------------------------| -1-1-1-1-1-1-1-1-1-1-1-1-| -------------------------|
----------------------|-------------------------|----------------------| ----------------------|-------------------------|----------------------| -7--------------------|-------------------------|-3--------------------| -7--------------------|-------------------------|-3--------------------| -5--5-5-5-5-5-5-5-5-5-|-5-5-5-5-5-5-5-5-5-5-5-5-|-1--1-1-1-1-1-1-1-1-1-| ----------------------|-------------------------|----------------------|
-------------------------| -------------------------| -------------------------| -------------------------| -1-1-1-1-1-1-0-0-0-0-0-0-| -------------------------|
----------------------|-------------------------|----------------------| ----------------------|-------------------------|----------------------| ----------------------|-------------------------|----------------------| -5--------------------|-------------------------|-3--------------------| -5--------------------|-------------------------|-3--------------------| -3--3-3-3-3-3-3-3-3-3-|-3-3-3-3-3-3-3-3-3-3-3-3-|-1--1-1-1-1-1-1-1-1-1-|
-------------------------| -------------------------| -------------------------| -------------------------| -------------------------| -1-1-1-1-1-1-1-1-1-1-1-1-|
----------------------|-------------------------|----------------------| ----------------------|-------------------------|----------------------| ----------------------|-------------------------|----------------------| -5--------------------|-------------------------|-3--------------------|
-5--------------------|-------------------------|-3--------------------| -3--3-3-3-3-3-3-3-3-3-|-3-3-3-3-3-3-3-3-3-3-3-3-|-1--1-1-1-1-1-1-1-1-1-|
--------------------------|| --------------------------|| -3-----------5------------|| -3-----------5------------|| -1--1-1-1-1--3--3-3-3-3---|| --------------------------||
SOLO 1 played to accompany SOLO RHYTHYM 1 (go figure!)
hold------ --------------------------|------|------------------------|------------| ----------------------15--|--17--|--(17)------------------|---16--15---| ------------------14------|------|--------------------14--|------------| --12------12--15----------|------|------------12--15------|------------| ------12------------------|------|--------12--------------|------------| --------------------------|------|------------------------|------------|
hold------ --------------------------|------|------------------------|------------| ----------------------15--|--17--|--(17)------------------|------------| ------------------14------|------|--------------------14--|---17--15---| --12------12--15----------|------|------------12--15------|------------| ------12------------------|------|--------12--------------|------------| --------------------------|------|------------------------|------------|
------------------|------------------|------------------|------------------| ------------------|------------------|------------------|------------------| --15--14--12------|--------------12--|--14--12----------|------------------| --------------15--|------12--15------|----------15------|------12--14--15--| ------------------|--13--------------|--------------12--|--12--------------| ------------------|------------------|------------------|------------------|
-----------------------------------------| -----------------------------------------| -----------------------------------------| --15--14--15--12--14------12------12--14-| ----------------------15------15---------| -----------------------------------------|
H P Slide Bend/Release P ----------------------------------------------------| ----------------------------------------------------| ----------------------^--------------^----^---------| ------12-----*12-14-12_10--12--14--12_(14)_(12)-10--| --15------15----------------------------------------| ----------------------------------------------------|
Bend Bend/Release Slide -----------------------------|------^------------| -----------------------------|--(10)_15--15--13--| ----^--------^----^----------|-------------------| --12_(14)--12_(14)_(12)--10--|-------------------| -----------------------------|-------------------| -----------------------------|-------------------| *note: this part is sketchy, but is close enough!
SOLO RHYTHM 2
-----------------------------|-----------------------------| -----------------------------|-----------------------------| -3---------------------------|-----------------------------| -3---------------------------|-3---------------------------| -1--1-1-1-1-1-1-1-1-1-1-1-1--|-3---------------------------| -----------------------------|-1--1-1-1-1-1-1-1-1-1-1-1-1--|
------------------------------|----------------------| ------------------------------|----------------------| --5---------------------------|-5----------4---------| --5---------------------------|-5----------4---------| --3--3-3-3-3-3-3-3-3-3-3-3-3--|-3-3-3-3-3--2-2-2-2-2-| ------------------------------|----------------------|
-----------------------------|-----------------------------| -----------------------------|-----------------------------| -3---------------------------|-----------------------------| -3---------------------------|-3---------------------------| -1--1-1-1-1-1-1-1-1-1-1-1-1--|-3---------------------------| -----------------------------|-1--1-1-1-1-1-1-1-1-1-1-1-1--|
------------------------------|----------------------| ------------------------------|----------------------| --5---------------------------|-5----------6---------| --5---------------------------|-5----------6---------| --3--3-3-3-3-3-3-3-3-3-3-3-3--|-3-3-3-3-3--4-4-4-4-4-| ------------------------------|----------------------|
SOLO 2 played to accompany SOLO RHYTHM 2
Bend/Release-- -----------------|-----------------|--------|----------| -----------^----^|^----------------|--------|----------| -12--12--10_(12)_|_(10)-9--10--12--|-12-----|----------| -----------------|-----------------|-----10-|-10--9--8-| -----------------|-----------------|--------|-10--9--8-| -----------------|-----------------|--------|----------|
Bend/Release-- Bend/Release -----------------|----------------|---------------------| -----------^----^|^---------------|----------^----^-----| -12--12--10_(12)_|_(10)-9--10--12-|-12-----13_(15)_(13)-| -----------------|----------------|-----9---------------| -----------------|----------------|---------------------| -----------------|----------------|---------------------| H P Slide P P ^ H P P ----*10--12--12--13-12_10---13-12-10------10-----------------| -13-----------------------------------13------13--11-13-11-9-| -------------------------------------------------------------| -------------------------------------------------------------| -------------------------------------------------------------| -------------------------------------------------------------| *note:this is an aproximation of what Manni is doing, it is not exact
SOLO 3 played to accompany SOLO RHYTHM 1 (again) note:this is very like SOLO 1
hold------ --------------------------|------|------------------------|------------| ----------------------15--|--17--|--(17)------------------|---16--15---| ------------------14------|------|--------------------14--|------------| --12------12--15----------|------|------------12--15------|------------| ------12------------------|------|--------12--------------|------------| --------------------------|------|------------------------|------------|
hold------ --------------------------|------|------------------------|------------| ----------------------15--|--17--|--(17)------------------|------------| ------------------14------|------|--------------------14--|---17--15---| --12------12--15----------|------|------------12--15------|------------| ------12------------------|------|--------12--------------|------------| --------------------------|------|------------------------|------------|
------------------|------------------|------------------|------------------| ------------------|------------------|------------------|------------------| --15--14--12------|--------------12--|--14--12----------|------------------| --------------15--|------12--15------|----------15------|------12--14--15--| ------------------|--13--------------|--------------12--|--12--------------| ------------------|------------------|------------------|------------------|
------------------|-----------------| ------------------|-----------------| --12--------------|-----------------| ------15--14------|----------14--15-| --------------15--|------12---------| ------------------|--15-------------|
Bend/Release ^ ^ --------------------------------------15--17--18--|--20_(22)_22--| --------------------------15--17--18--------------|--------------| --------------12--14--15--------------------------|--------------| --12--14--15--------------------------------------|--------------| --------------------------------------------------|--------------| --------------------------------------------------|--------------|
PLAY THIS RIFF TWICE
-----------------------|-----------------------|-----------------------| -----------------------|-----------------------|-----------------------| -----------------------|-----------------------|-----------------------| --------------5-4-2-0--|--------------5-4-2-0--|--------------5-4-2-0--| -----------------------|-----------------------|-----------------------| --0-0-2-3-0-2----------|--0-0-2-3-0-3----------|--0-0-2-3-0-3----------|
---------------| ---------------| ---7--7--2-----| ---7--7--2-----| ---5--5--0-----| ------------3--|
PLAY : VERSE, PRE-CHORUS, CHORUS 2X (on second Chorus, play LEAD 2)
LEAD 2
--------5--|--3-----------|--5--5--5--8--|--6--5--------|--------5--| --6--6-----|-----6--3-----|--------------|--------6--3--|--6--6-----| -----------|-----------5--|--------------|--------------|-----------| -----------|--------------|--------------|--------------|-----------| -----------|--------------|--------------|--------------|-----------| -----------|--------------|--------------|--------------|-----------|
H P --3---------------|--5--3-----|--------| -----6--3-6-3-----|--------6--|--------| ---------------5--|-----------|--3--5--| ------------------|-----------|--------| ------------------|-----------|--------| ------------------|-----------|--------| (OUTRO
--------5--|--3-----------|--5--5--5--8--|--6--5--------|--------5--| --6--6-----|-----6--3-----|--------------|--------6--3--|--6--6-----| -----------|-----------5--|--------------|--------------|-----------| -----------|--------------|--------------|--------------|-----------| -----------|--------------|--------------|--------------|-----------| -----------|--------------|--------------|--------------|-----------|
STARTS) --3---------------|--5--3-----|-----------|----- -----6--3-6-3-----|--------6--|--3--3--5--|--6-- ---------------5--|-----------|-----------|----- ------------------|-----------|-----------|----- ------------------|-----------|-----------|----- ------------------|-----------|-----------|-----
OUTRO *note:the Outro starts with the last note of LEAD 2
------------------------|---------------------|------------------------| ------------------------|---------------------|------------------------| --7----------7----------|--7----------10---5--|--7----------7----------| --7----------7----------|--7----------10---5--|--7----------7----------| --5-5-5-5-5--5-5-5-5-5--|--5-5-5-5-5--8----3--|--5-5-5-5-5--5-5-5-5-5--| ------------------------|---------------------|------------------------|
-------------------| -------------------| --7----------3--5--| --7----------3--5--| --5-5-5-5-5--1--3--| -------------------|
------------------------|---------------------|------------------------| ------------------------|---------------------|------------------------| --7----------7----------|--7----------10---9--|--7----------7----------| --7----------7----------|--7----------10---9--|--7----------7----------| --5-5-5-5-5--5-5-5-5-5--|--5-5-5-5-5--8----7--|--5-5-5-5-5--5-5-5-5-5--| ------------------------|---------------------|------------------------|
-------------------| -------------------| --7----------3--5--| --7----------3--5--| --5-5-5-5-5--1--3--| -------------------| Hold for a while and/or thrash it ---------|---------|---------|---------|-----------------------------------| ---------|---------|---------|---------|-----------------------------------| --7---5--|--3---5--|--7---5--|--3---5--|--7--------------------------------| --7---5--|--3---5--|--7---5--|--3---5--|--7--------------------------------| --5---3--|--1---3--|--5---3--|--1---3--|--5--------------------------------| ---------|---------|---------|---------|-----------------------------------|
-----------------------|-----------------------|-----------------------| -----------------------|-----------------------|-----------------------| -----------------------|-----------------------|-----------------------| --------------5-4-2-0--|--------------5-4-2-0--|--------------5-4-2-0--| -----------------------|-----------------------|-----------------------| --0-0-2-3-0-2----------|--0-0-2-3-0-3----------|--0-0-2-3-0-3----------|
------|| ------|| ---7--|| ---7--|| ---5--|| ------||

variations - click chord images
Transpose chords:
Tuning:
Cool service:
View: Size:
A  A  A
Rating:
Layout:
  • Currently 0/5 Stars.
  • 1
  • 2
  • 3
  • 4
  • 5
 
Accuracy:
  • Currently 3/5 Stars.
  • 1
  • 2
  • 3
  • 4
  • 5
 
click stars to rate
Chordie recommends:
Learn to play guitar with video-based, online guitar lessons at JamPlay.com
Songbook:
Login to add this song to your songbook
Support the artist
Preview/buy this song
MSN Music
Why this non-profit ad?

 
login to add comments/video/corrections