Chordie logo


Snakecharmer   Rage Against The Machine



Snakecharmer
************

Drop-D tuning

Riff A
------

|---------------------------------|
|---------------------------------|
|---------10--------------10------|
|---------10--------------10------|
|---------------------------------|
|-0---------------0---------------|

Riff B1
-------

|---------------------------------|---------------------------------|
|---------------------------------|---------------------------------|
|---------12----------------------|---------12----------------------|
|---------------------------------|---------------------------------|
|---------------------------------|---------------------------------|
|-0---0-------0---10--12--10--12--|-0---0-------0---12--12--11--10--|

Riff B2
-------

|---------------------------------|---------------------------------|
|---------------------------------|---------------------------------|
|---------12----------------------|---------12----------------------|
|---------------------------------|---------------------------------|
|-0---------------10--12--10--12--|-0---------------12--12--11--10--|
|-0-----------0---10--12--10--12--|-0---------------12--12--11--10--|

Rhy. fig 1
----------

|---------------------------------|---------------------------------|
|---------------------------------|---------------------------------|
|---------------------------------|---------------------------------|
|-12--12--12--12--12--10--X---X---|-12--12--12--12--12--10--X-X-X-X-|
|-12--12--12--12--12--10--X---X---|-12--12--12--12--12--10--X-X-X-X-|
|-12--12--12--12--12--10--X---X---|-12--12--12--12--12--10--X-X-X-X-|

Rhy. fig 1
----------

|---------------------------------|---------------------------------|
|---------------------------------|---------------------------------|
|---------------------------------|-----------------7---7---5-------|
|-0-------0-------5---3---0-------|-7---5---0-----------------------|
|-0-------0-------5---3---0-------|-7---5---0-------5---5---3-------|
|-0-------0-------5---3---0-------|-7---5---0-----------------------|
  1 2 3 4 5 6 7 8 9 10111213141516  1 2 3 4 5 6 7 8 9 10111213141516

Rhy. fig 2
----------

|---------------------------------|---------------------------------|
|---------------------------------|---------------------------------|
|---------7-----------7-----------|-7---5---------------------------|
|-0-------------------------------|-----------------5---3-----------|
|-0-------5-----------5-----------|-5---3---------------------------|
|-0-------------------------------|-----------------5---3-----------|

|---------------------------------|---------------------------------|
|---------------------------------|---------------------------------|
|---------------------------------|---------------------------------|
|-0-------------l e t   r i n g....l e t   r i n g....--------------|
|-0-------------------------------|---------------------------------|


Important: The song above is NOT stored on the Chordie server. The original song is hosted at www.xguitar.com. Chordie works as a search engine and provides on-the-fly formatting. Chordie does not index songs against artists/composers will. To remove this song please click here.

This song is displayed as text-only. Transposing and tuning is only available for chordpro-songs.

Login - add to songbook

Rating click stars to rate

Layout
Accuracy

SHARE PAGE  




You need to log in to post comments