Guitar Tabs, Chords and Lyrics


Rainbow Eyes   Rainbow

		In flute solo there is --12--P10--, it's like --12--12p10-- 



[Em]   [-]  [D]  [-]  [C]  [-]  [D]                        
and riff starts like this:

e|--------0-------|---------------|----------------|----------------|
B|------------3---|---------------|----------------|-7---5----------|
G|----------------|-4p3p2----2--4-|-5--------------|----------------|
D|------2---------|-------5-------|----------------|----------------|
A|----------------|---------------|------------(3)-|----------------|
E|-0--------------|---------------|----------------|----------------|
e|--------0-------|---------------|------? ?
B|------------3---|---------------|------? ?    If you have any ideas
G|----------------|-4p3p2----2--4-|------? ?	about what to play here
D|------2---------|-------5-------|------? ?	please, please mail me
A|----------------|---------------|-3----? ?		at
E|-0--------------|---------------|------? ?     rockmagic@yandex.ru


Song Chords:

Verse:
Em - G - D - Am - C - D - Em
Em - G - D - Am - C - D - Em


Chorus (or what is it):
[C]  [-]  [C]  [-]  [Am]   [-]  [Am]                        
Em and solos solos solos


Flute solo (arranged for guitar):

e----|----------------|---------------|-10---------------|----------------|
B----|-------------10-|-12------10-12-|----12--P10-------|-10-------------|
G----|-12----11-12----|---------------|------------12--9-|-------------12-|
D-12-|----------------|---------------|------------------|----------------|
A----|----------------|---------------|------------------|----------------|
E----|----------------|---------------|------------------|----------------|
    e|----------------|---------------|------------------|----------------|
    B|----------------|---------------|------------------|----------------|
    G|-11--9----------|----9m-9~~-----|----9-11-12--11-9-|-----9m-9~~--11-|
    D|---------12--10-|-9-------------|------------------|-10-------------|
    A|----------------|---------------|------------------|----------------|
    E|----------------|---------------|------------------|----------------|
    e|----------------|---------------|------------------|--------12~~----|
    B|----------------|---------------|------------------|----------------|
    G|-----10-12--/13-|-12-10m10------|---10-12-13--12-10|-12-------------|
    D|-12-------------|---------------|------------------|-----9m---------|
    A|----------------|---------------|------------------|----------------|
    E|----------------|---------------|------------------|----------------|
    e|----------------|---------------|------------------|----------------|
    B|----------------|-------------10|-12p10------------|-10~~-----------|
    G|----9-11-12-11-9|-11---9-11-12--|-------12m12-11-12|----------------|
    D|----------------|----12---------|------------------|----------------|
    A|----------------|---------------|------------------|----------------|
    E|----------------|---------------|------------------|----------------|
    e|----------------|---------------|------------------|----------------|
    B|----------------|---------------|------------------|----------------|
    G|-12--11--9--12--|--10-----------|-9-------7--------|-5--------------|
    D|----------------|-----------(10)|------------------|----------------|
    A|----------------|---------------|------------------|----------------|
    E|----------------|---------------|------------------|----------------|

Em and verse starts here
* it's pretty cool yeah! here is incredible for notation timing, so listen to CD


Please mail me if you have any suggestions, corrections, additions etc.

Important: The song above is NOT stored on the Chordie server. The original song is hosted at www.xguitar.com. Chordie works as a search engine and provides on-the-fly formatting. Chordie does not index songs against artists'/composers' will. To remove this song please click here.

Text color:
Chord color:
Chord grids: 
Font size:    
Page size: 

Am C D Em
variations - click chord images

Login - add to songbook

Transpose chords

Tuning

Rating click stars to rate

Layout
Accuracy

SHARE PAGE  




You need to log in to post comments