Guitar Tabs, Chords and Lyrics


Heirate Mich   Rammstein



Heirate mich

Standard Tuning
|-e-|
|-B-|
|-G-|
|-D-|
|-A-|
|-E-|
Intro/Chorus
|---------------------------------|
|---------------------------------|
|---------------------------------|
|-2-----2-----2-----2-------------|
|-2-----2-----2-----2---5/4---4/5-|
|-0-0-0-0-0-0-0-0-0-0-0-3/2-0-2/3-|
    pm.]  pm.]  pm.]  pm

Bridge
|------------------|-----------------------|
|------------------|-----------------------|
|------------------|-----------------------|
|-2----------5-3-2-|-4------4-----4-5--2-4-|
|-2------2-3-5-3-2-|-4------4-----4-5--2-2-|
|-0------0-1-3-1-0-|-2--2-2-2-2-2-2-3--0-2-|
         pm.]           pm.]  pm.]

tabbed by Rebel X
Ramms+ein tabs: http://www.geocities.com/SunsetStrip/Pit/2594/index.html


Important: The song above is NOT stored on the Chordie server. The original song is hosted at www.xguitar.com. Chordie works as a search engine and provides on-the-fly formatting. Chordie does not index songs against artists/composers will. To remove this song please click here.

This song is displayed as text-only. Transposing and tuning is only available for chordpro-songs.

Login - add to songbook

Rating click stars to rate

Layout
Accuracy

SHARE PAGE  




You need to log in to post comments