Guitar Tabs, Chords and Lyrics


Wollt Ihr Das Bett In Flammen Sehen   Rammstein



Wollt ihr das Bett in Flammen sehen

Drop D Tuning
|-e-|
|-B-|
|-G-|
|-D-|
|-A-|
|-D-|
Main Guitar Part
|-----------------|
|-----------------|
|-5-7---8---7-----|
|-5-7---8---7-----|
|-3-5---6---5-----|
|-----0---0---0-0-|
      pm  pm  pm.]
Second Guitar Part
|-------------------|
|-------------------|
|-------------------|
|---------3-0---0---|
|---------3-0---0---|
|-7-7-6-5-3-0---0---|
Sex ist eine Schlact...
Third Verse:
|-------------|
|-------------|
|-5-7---------|
|-5-7---------|
|-3-5---------|
|-------------|

tabbed by Rebel X
Ramms+ein tabs: http://www.geocities.com/SunsetStrip/Pit/2594/index.html


Important: The song above is NOT stored on the Chordie server. The original song is hosted at www.xguitar.com. Chordie works as a search engine and provides on-the-fly formatting. Chordie does not index songs against artists/composers will. To remove this song please click here.

This song is displayed as text-only. Transposing and tuning is only available for chordpro-songs.

Login - add to songbook

Rating click stars to rate

Layout
Accuracy

SHARE PAGE  




You need to log in to post comments