Chordie logo


Zwitter   Rammstein



Artist: Rammstein
Album: Mutter
Year: 2001
Song: Zwitter
Versions: 2
======================================================================
======================================================================
======================================================================
Zwitter By Rammstein
Album:  Mutter
 
Drop D Tuning

Main Riff
Note: h = hammer on
      \ = slide down

Intro 

E-----------------------------------------------------------------
B-----------------------------------------------------------------
D-----------------------------------------------------------------
D-----------------------------------------------------------------
A-----------------------------------------------------------------
D-0-0-0-0-0-0-5\3---0-0-0-0-0h1--0--------------------------------
  pm.........       pm.....
Part after intro

E-----------------------------------------------------------------
B-----------------------------------------------------------------
D-----------------------------------------------------------------
D-0-0-0-0-0-0-5\3---0-0-0-0-0h1--0--------------------------------
A-0-0-0-0-0-0-5\3---0-0-0-0-0h1--0--------------------------------
D-0-0-0-0-0-0-5\3---0-0-0-0-0h1--0--------------------------------
  pm.........       pm.....
Chorus

E-----------------------------------------------------------------
B-----------------------------------------------------------------
G-8-8-8-8-8-8-8-8-5-5-5-5-5-5-5-5-3-3-3-3-3-3-3-3-3-3-3-3---------
D-8-8-8-8-8-8-8-8-5-5-5-5-5-5-5-5-3-3-3-3-3-3-3-3-3-3-3-3-----1-3-
A-6-6-6-6-6-6-6-6-3-3-3-3-3-3-3-3-1-1-1-1-1-1-1-1-1-1-1-1-1-3-----
D-----------------------------------------------------------------

E-----------------------------------------------------------------
B-----------------------------------------------------------------
G-8-8-8-8-8-8-8-8-5-5-5-5-5-5-5-5---------------------------------
D-8-8-8-8-8-8-8-8-5-5-5-5-5-5-5-5-5-5-5-5-5-5-5-5-5-5-5-5-5-5-5-5-
A-6-6-6-6-6-6-6-6-3-3-3-3-3-3-3-3-5-5-5-5-5-5-5-5-5-5-5-5-5-5-5-5-
D---------------------------------5-5-5-5-5-5-5-5-5-5-5-5-5-5-5-5-
======================================================================
======================================================================
======================================================================
Zwitter
Tabbed by Rick Kaminski 

Drop D

P=Pull off

Opening:
E|---------------------------------------------------------------------------------------------------|
B|---------------------------------------------------------------------------------------------------|
G|---------------------------------------------------------------------------------------------------|
D|---------------------------------------------------------------------------------------------------|
A|---------------------------------------------------------------------------------------------------|
D|-0-0-0-0-0-0-5-3-0-0-0-0-1-1-1-1-0-0-0-0-0-0-5-3-0-0-0-0-1-1-1-1-0-0-0-0-0-0-5-3-0-0-0-0-1-1-1-1---|

Next heavy riff:
E|-----------------------------------------------------------------------------|
B|-----------------------------------------------------------------------------|
G|-----------------------------------------------------------------------------|
D|-----------5P3---------1-----1---------5P3---------1-----1-------------------|
A|---0-0-0-0-5P3-0-0-0-0-1-1-1-1-0-0-0-0-5P3-0-0-0-0-1-1-1-1-------------------|
D|---0-0-0-0-5P3-0-0-0-0-1-1-1-1-0-0-0-0-5P3-0-0-0-0-1-1-1-1-------------------|
p.m. . . . .     . . . .   . .   . . . .     . . . .   . .
"Eins für mich..."

E|-----------------------------------------------------------------|
B|-----------------------------------------------------------------|
G|-8-8-8-8-8-8-8-8-5-5-5-5-5-5-5-5-3-3-3-3-3-3-3-3-3-3-3-3---------|
D|-8-8-8-8-8-8-8-8-5-5-5-5-5-5-5-5-3-3-3-3-3-3-3-3-3-3-3-3-----1-3-|
A|-6-6-6-6-6-6-6-6-3-3-3-3-3-3-3-3-1-1-1-1-1-1-1-1-1-1-1-1-1-3-----|
D|-----------------------------------------------------------------|

E-----------------------------------------------------------------|
B-----------------------------------------------------------------|
G-8-8-8-8-8-8-8-8-5-5-5-5-5-5-5-5---------------------------------|
D-8-8-8-8-8-8-8-8-5-5-5-5-5-5-5-5-5-5-5-5-5-5-5-5-5-5-5-5-5-5-5-5-|
A-6-6-6-6-6-6-6-6-3-3-3-3-3-3-3-3-5-5-5-5-5-5-5-5-5-5-5-5-5-5-5-5-|
D---------------------------------5-5-5-5-5-5-5-5-5-5-5-5-5-5-5-5-|


Important: The song above is NOT stored on the Chordie server. The original song is hosted at www.xguitar.com. Chordie works as a search engine and provides on-the-fly formatting. Chordie does not index songs against artists/composers will. To remove this song please click here.

This song is displayed as text-only. Transposing and tuning is only available for chordpro-songs.

Login - add to songbook

Rating click stars to rate

Layout
Accuracy

SHARE PAGE  




You need to log in to post comments