Guitar Tabs, Chords and Lyrics


Amerika   Rammstein



Ramms+ein - Amerika
Album: Reise, Reise
Tab made by: Jorge Fernandez (zoranfdz@hotmail.com)
Date: September 29, 2004
Tunning: C,G,C,F,A,D
(Do,Sol,Do,Fa,La,RE)

Intro/Chorus
|-----------|------------------------------|------------------------------------|
|-----------|------------------------------|------------------------------------|
|-----------|------------------------------|---------555555---------------------|
|----222222-|-000000000000/22222222222-----|--000000-555555-222222-3/555555-----|
|----222222-|-000000000000/22222222222-----|--000000-333333-222222-3/555555-----|
|----222222-|-000000000000/22222222222-----|--000000-(0)----222222-3/555555-----|
     [p-m.]

Verse
|------------------------------|-------------------------------|
|------------------------------|-------------------------------|
|------4-----------------------|-------4-----------------------|
|----5-------------------------|-----5-------------------------|
|--7---------------------------|---7---------------------------|
|------------------------------|-------------------------------|

|------------------------------|-------------------------------|
|------------------------------|-------------------------------|
|-(4)---------------------6----|----------------------------6--|
|-----------------------7------|--------------------------7----|
|---------------------9--------|------------------------9------|
|------------------------------|-------------------------------|

pre-chorus
|--------------|
|--------------|
|--------------|
|-22-22--22-22-|
|-22-22--22-22-|
|-22-22--22-22-|
  (p.m)  (p.m.)    * I just play this along the bass drum, dont play the 5th and 4th strings if you dont feel like

Bridge                                  x2
|-----------------------------------------|
|-----------------------------------------|
|-----------------------------------------|
|-0h222222h333333-0h2-0022222233333355/00-| (well sounds ok to me but needs more work
|-0h222222h333333-0h2-0022222233333355/00-|   I'll update this and other parts later)
|-0h222222h333333-0h2-0022222233333355/00-|
-
Rhythm Under Solo                       x2
|-----------------------------------------|
|-----------------------------------------|
|-----------------------------------------|
|--3333333333-/77777777-0h222222-0h222222-|
|--3333333333-/77777777-0h222222-0h222222-|
|--3333333333-/77777777-0h222222-0h222222-| * there are some ghost notes here but are too low to hear well

Fill after solo
|----------------------|
|----------------------|
|----------------------|
|----------------------|
|----------------------|
|-0h2-2222h3-0222235-0-|  * not 100% sure , you get the idea

Notes:
sorry for not tabbing the solo, guess i'm too lazy to get it right,
but hey i just gave you most of the song so deal with it. Anyway
is a great song, Ramms+ein's new single, enjoy.  This is the first
time I Tab something from Rammstein so gimme a break dude, I've been


Important: The song above is NOT stored on the Chordie server. The original song is hosted at www.xguitar.com. Chordie works as a search engine and provides on-the-fly formatting. Chordie does not index songs against artists'/composers' will. To remove this song please click here.

This song is displayed as text-only. Transposing and tuning is only available for chordpro-songs.

Login - add to songbook

Rating click stars to rate

Layout
Accuracy

SHARE PAGE  




You need to log in to post comments