Guitar Tabs, Chords and Lyrics


Dalai Lama   Rammstein



Intro/Verse:
E|-----------------|
B|-----------------|
G|-----------------|
D|--------------6--|
A|-33-33-33-33-343-|
D|-----------------|

@ 0.48: (and further)
E|------------|-------------|------------|-------------|
B|------------|-------------|------------|-------------|
G|------------|--------3----|------------|--------5----|
D|-5--4--5----|--5--4-------|-5--4--5----|--5--4-------|
A|---------3--|----------3--|---------3--|----------3--|
D|------------|-------------|------------|-------------|

Piano @ 2.27 (and further)
(4x = ONLY THAT PART 4x, you`ll hear it....)

     4x         4x         2x         2x         2x         2x
E|-15-------|-16-------|-13-------|-16-------|-15-------|-13---------|
B|----16----|----18----|----14----|----18----|----16----|----14-(13)-|
G|-------17-|-------18-|-------15-|-------18-|-------17-|-------(17)-|
D|----------|----------|----------|----------|----------|------------|
A|----------|----------|----------|----------|----------|------------|
D|----------|----------|----------|----------|----------|------------|



Important: The song above is NOT stored on the Chordie server. The original song is hosted at www.xguitar.com. Chordie works as a search engine and provides on-the-fly formatting. Chordie does not index songs against artists'/composers' will. To remove this song please click here.

This song is displayed as text-only. Transposing and tuning is only available for chordpro-songs.

Login - add to songbook

Rating click stars to rate

Layout
Accuracy

SHARE PAGE  




You need to log in to post comments