Chordie logo


Spiel Mit Mir   Rammstein



Spiel mit mir

Standard tuning
|-e-|
|-B-|
|-G-|
|-D-|
|-A-|
|-E-|

Verse
|---------------------------------------------|
|---------------------------------------------|
|--------4------------------------------------|
|--------2------------------------------------|
|-2-2-2----2-2-2--2-2-2--3-3-3--3-3--4-4--4-4-|
|-0-0-0----0-0-0--0-0-0--1-1-1--1-1--2-2--2-2-|
  pm...]   pm................................]

Bridge
|------------------------------------------|
|------------------------------------------|
|--------2---------------------------------|
|-2-2-2--2-2-2-2--2-2-2--2-2-3--3-3--------|
|-0-0-0----0-0-0--0-0-0--0-0-1--1-1-5--5-5-|
|-----------------------------------3--3-3-|
  pm...]   pm.............................]

Chorus
|------------------------------------------------|
|------------------------------------------------|
|------------------------------------------------|
|-4-4-4----------------2-2-2--2-2----------------|
|-2-2-2--2-2-2--2-2-2--0-0-0--0-0--3--3-3-2--2-2-|
|--------0-0-0--0-0-0--------------1--1-1-0--0-0-|

(not much of a)
Solo
|-------------------------------|
|-12-0-12-0-12-0-12-0-...etc...-|
|-------------------------------|
|-------------------------------|
|-------------------------------|
|-------------------------------|

tabbed by Rebel X
Ramms+ein tabs: http://www.geocities.com/SunsetStrip/Pit/2594/index.html


Important: The song above is NOT stored on the Chordie server. The original song is hosted at www.xguitar.com. Chordie works as a search engine and provides on-the-fly formatting. Chordie does not index songs against artists/composers will. To remove this song please click here.

This song is displayed as text-only. Transposing and tuning is only available for chordpro-songs.

Login - add to songbook

Rating click stars to rate

Layout
Accuracy

SHARE PAGE  




You need to log in to post comments