Guitar Tabs, Chords and Lyrics


Roadblock   Rancid



Rancid

Indestructible

Roadblock

Alright this is the first tab for this song.
Give me corrections and some stars!

TUNING : ebgdae

SONG: ROADBLOCK

KEY:
x= muted but played
^= bend
~= ring
/= pick slide

RANCID ROCKS!!!!!!

IM 99% on this!!


INTRO (GO GO)

e------------------------------------------------------
b------------------------------------------------------
g-7-7-7-7-7-7-3-3-5-5--------------------------------------------
d-x-x-x-x-x-x-x-x-x-x--------------------------------------------
a-5-5-5-5-5-5-1-1-3-3--------------------------------------------
e------------------------------------------------------

e------------------------------------------------------
b------------------------------------------------------
g-7-7-7-7-7-7-3-3-5-5--------------------------------------------
d-x-x-x-x-x-x-x-x-x-x--------------------------------------------
a-5-5-5-5-5-5-1-1-3-3--------------------------------------------
e------------------------------------------------------

e------------------------------------------------------
b------------------------------------------------------
g-7-7-7-7-7-7-3-3-5-5--------------------------------------------
d-x-x-x-x-x-x-x-x-x-x--------------------------------------------
a-5-5-5-5-5-5-1-1-3-3--------------------------------------------
e------------------------------------------------------

VERSE(walk into the party)

e------------------------------------------------------
b------------------------------------------------------
g--3-3-3-3-3-3-5-7---------------------------------------------
d--x-x-x-x-x-x-x-x---------------------------------------------
a--1-1-1-1-1-1-3-5---------------------------------------------
e------------------------------------------------------

e------------------------------------------------------
b------------------------------------------------------
g--3-3-3-3-3-3-5-7---------------------------------------------
d--x-x-x-x-x-x-x-x---------------------------------------------
a--1-1-1-1-1-1-3-5---------------------------------------------
e------------------------------------------------------

e------------------------------------------------------
b------------------------------------------------------
g--3-3-3-3-3-3-5-7---------------------------------------------
d--x-x-x-x-x-x-x-x---------------------------------------------
a--1-1-1-1-1-1-3-5---------------------------------------------
e------------------------------------------------------

e------------------------------------------------------
b------------------------------------------------------
g--3-3-3-3-3-3-5-7---------------------------------------------
d--x-x-x-x-x-x-x-x---------------------------------------------
a--1-1-1-1-1-1-3-5---------------------------------------------
e------------------------------------------------------

CHORUS(we're headed out to another show)

e------------------------------------------------------
b------------------------------------------------------
g--5-5-3-3-7-7-7-7-7-7-3-3-5-5-------------------------
d--x-x-x-x-x-x-x-x-x-x-x-x-x-x-------------------------
a--3-3-1-1-5-5-5-5-5-5-1-1-3-3-------------------------
e------------------------------------------------------

e------------------------------------------------------
b------------------------------------------------------
g--5-5-3-3-7-7-7-7-7-7-3-3-5-5-------------------------
d--x-x-x-x-x-x-x-x-x-x-x-x-x-x-------------------------
a--3-3-1-1-5-5-5-5-5-5-1-1-3-3-------------------------
e------------------------------------------------------

e------------------------------------------------------
b------------------------------------------------------
g--5-5-3-3-5-5-3-3---------------------------------------------
d--x-x-x-x-x-x-x-x---------------------------------------------
a--3-3-1-1-3-3-1-1---------------------------------------------
e------------------------------------------------------

e------------------------------------------------------
b------------------------------------------------------
g--5-5-5-5-5-5-5-5-5-5-5-5-5-5-5-5----------------------------
d--x-x-x-x-x-x-x-x-x-x-x-x-x-x-x-x----------------------------
a--3-3-3-3-3-3-3-3-3-3-3-3-3-3-3-3----------------------------
e------------------------------------------------------

e------------------------------------------------------
b------------------------------------------------------
g--3-3-3-3-3-3-3-3-3-3-3-3-3-3-3-3----------------------------
d--x-x-x-x-x-x-x-x-x-x-x-x-x-x-x-x----------------------------
a--1-1-1-1-1-1-1-1-1-1-1-1-1-1-1-1----------------------------
e------------------------------------------------------

AFTER CHORUS

e------------------------------------------------------
b------------------------------------------------------
g-7-7-7-7-7-7-3-3-5-5--------------------------------------------
d-x-x-x-x-x-x-x-x-x-x--------------------------------------------
a-5-5-5-5-5-5-1-1-3-3--------------------------------------------
e------------------------------------------------------

e------------------------------------------------------
b------------------------------------------------------
g-7-7-7-7-7-7-3-3-5-5--------------------------------------------
d-x-x-x-x-x-x-x-x-x-x--------------------------------------------
a-5-5-5-5-5-5-1-1-3-3--------------------------------------------
e------------------------------------------------------

e------------------------------------------------------
b------------------------------------------------------
g-7-7-7-7-7-7-3-3-5-5--------------------------------------------
d-x-x-x-x-x-x-x-x-x-x--------------------------------------------
a-5-5-5-5-5-5-1-1-3-3--------------------------------------------
e------------------------------------------------------

VERSE(go to work)

e------------------------------------------------------
b------------------------------------------------------
g--3-3-3-3-3-3-5-7---------------------------------------------
d--x-x-x-x-x-x-x-x---------------------------------------------
a--1-1-1-1-1-1-3-5---------------------------------------------
e------------------------------------------------------

e------------------------------------------------------
b------------------------------------------------------
g--3-3-3-3-3-3-5-7---------------------------------------------
d--x-x-x-x-x-x-x-x---------------------------------------------
a--1-1-1-1-1-1-3-5---------------------------------------------
e------------------------------------------------------

e------------------------------------------------------
b------------------------------------------------------
g--3-3-3-3-3-3-5-7---------------------------------------------
d--x-x-x-x-x-x-x-x---------------------------------------------
a--1-1-1-1-1-1-3-5---------------------------------------------
e------------------------------------------------------

e------------------------------------------------------
b------------------------------------------------------
g--3-3-3-3-3-3-5-7---------------------------------------------
d--x-x-x-x-x-x-x-x---------------------------------------------
a--1-1-1-1-1-1-3-5---------------------------------------------
e------------------------------------------------------

e------------------------------------------------------
b------------------------------------------------------
g--3-3-3-3-3-3-5-7---------------------------------------------
d--x-x-x-x-x-x-x-x---------------------------------------------
a--1-1-1-1-1-1-3-5---------------------------------------------
e------------------------------------------------------

e------------------------------------------------------
b------------------------------------------------------
g--3-3-3-3-3-3-5-7---------------------------------------------
d--x-x-x-x-x-x-x-x---------------------------------------------
a--1-1-1-1-1-1-3-5---------------------------------------------
e------------------------------------------------------

e------------------------------------------------------
b------------------------------------------------------
g--3-3-3-3-3-3-5-7---------------------------------------------
d--x-x-x-x-x-x-x-x---------------------------------------------
a--1-1-1-1-1-1-3-5---------------------------------------------
e------------------------------------------------------

e------------------------------------------------------
b------------------------------------------------------
g--3-3-3-3-3-3-5-7---------------------------------------------
d--x-x-x-x-x-x-x-x---------------------------------------------
a--1-1-1-1-1-1-3-5---------------------------------------------
e------------------------------------------------------

CHORUS(we're headed out to another show)

e------------------------------------------------------
b------------------------------------------------------
g--5-5-3-3-7-7-7-7-7-7-3-3-5-5-------------------------
d--x-x-x-x-x-x-x-x-x-x-x-x-x-x-------------------------
a--3-3-1-1-5-5-5-5-5-5-1-1-3-3-------------------------
e------------------------------------------------------

e------------------------------------------------------
b------------------------------------------------------
g--5-5-3-3-7-7-7-7-7-7-3-3-5-5-------------------------
d--x-x-x-x-x-x-x-x-x-x-x-x-x-x-------------------------
a--3-3-1-1-5-5-5-5-5-5-1-1-3-3-------------------------
e------------------------------------------------------

e------------------------------------------------------
b------------------------------------------------------
g--5-5-3-3-5-5-3-3---------------------------------------------
d--x-x-x-x-x-x-x-x---------------------------------------------
a--3-3-1-1-3-3-1-1---------------------------------------------
e------------------------------------------------------

e------------------------------------------------------
b------------------------------------------------------
g--5-5-5-5-5-5-5-5-5-5-5-5-5-5-5-5----------------------------
d--x-x-x-x-x-x-x-x-x-x-x-x-x-x-x-x----------------------------
a--3-3-3-3-3-3-3-3-3-3-3-3-3-3-3-3----------------------------
e------------------------------------------------------

e------------------------------------------------------
b------------------------------------------------------
g--3-3-3-3-3-3-3-3-3-3-3-3-3-3-3-3----------------------------
d--x-x-x-x-x-x-x-x-x-x-x-x-x-x-x-x----------------------------
a--1-1-1-1-1-1-1-1-1-1-1-1-1-1-1-1----------------------------
e------------------------------------------------------

AFTER CHORUS

e------------------------------------------------------
b------------------------------------------------------
g-7-7-7-7-7-7-3-3-5-5--------------------------------------------
d-x-x-x-x-x-x-x-x-x-x--------------------------------------------
a-5-5-5-5-5-5-1-1-3-3--------------------------------------------
e------------------------------------------------------

e------------------------------------------------------
b------------------------------------------------------
g-7-7-7-7-7-7-3-3-5-5--------------------------------------------
d-x-x-x-x-x-x-x-x-x-x--------------------------------------------
a-5-5-5-5-5-5-1-1-3-3--------------------------------------------
e------------------------------------------------------

e------------------------------------------------------
b------------------------------------------------------
g-7-7-7-7-7-7-3-3-5-5--------------------------------------------
d-x-x-x-x-x-x-x-x-x-x--------------------------------------------
a-5-5-5-5-5-5-1-1-3-3--------------------------------------------
e------------------------------------------------------

e------------------------------------------------------
b------------------------------------------------------
g-7-7-7-7-7-7-3-3-5-5--------------------------------------------
d-x-x-x-x-x-x-x-x-x-x--------------------------------------------
a-5-5-5-5-5-5-1-1-3-3--------------------------------------------
e------------------------------------------------------

SOLO(1:19)

e------------------------------------------------------
b------------------------------------------------------
g--7-7~--5-5~--7-5-7-9^~--------------------------------
d--x-x~--x-x~--x-x-x-x---////////------------------------
a--5-5~--3-3~--5-3-5-7^~-////////------------------
e------------------------------------------------------

VERSE(we're not ****ing around)

e------------------------------------------------------
b------------------------------------------------------
g--3-3-3-3-3-3-5-7---------------------------------------------
d--x-x-x-x-x-x-x-x---------------------------------------------
a--1-1-1-1-1-1-3-5---------------------------------------------
e------------------------------------------------------

e------------------------------------------------------
b------------------------------------------------------
g--3-3-3-3-3-3-5-7---------------------------------------------
d--x-x-x-x-x-x-x-x---------------------------------------------
a--1-1-1-1-1-1-3-5---------------------------------------------
e------------------------------------------------------

e------------------------------------------------------
b------------------------------------------------------
g--3-3-3-3-3-3-5-7---------------------------------------------
d--x-x-x-x-x-x-x-x---------------------------------------------
a--1-1-1-1-1-1-3-5---------------------------------------------
e------------------------------------------------------

e------------------------------------------------------
b------------------------------------------------------
g--3-3-3-3-3-3-5-7---------------------------------------------
d--x-x-x-x-x-x-x-x---------------------------------------------
a--1-1-1-1-1-1-3-5---------------------------------------------
e------------------------------------------------------

CHORUS (we're headed out to another show)

e------------------------------------------------------
b------------------------------------------------------
g--5-5-3-3-7-7-7-7-7-7-3-3-5-5-------------------------
d--x-x-x-x-x-x-x-x-x-x-x-x-x-x-------------------------
a--3-3-1-1-5-5-5-5-5-5-1-1-3-3-------------------------
e------------------------------------------------------

e------------------------------------------------------
b------------------------------------------------------
g--5-5-3-3-7-7-7-7-7-7-3-3-5-5-------------------------
d--x-x-x-x-x-x-x-x-x-x-x-x-x-x-------------------------
a--3-3-1-1-5-5-5-5-5-5-1-1-3-3-------------------------
e------------------------------------------------------

e------------------------------------------------------
b------------------------------------------------------
g--5-5-3-3-5-5-3-3---------------------------------------------
d--x-x-x-x-x-x-x-x---------------------------------------------
a--3-3-1-1-3-3-1-1---------------------------------------------
e------------------------------------------------------

e------------------------------------------------------
b------------------------------------------------------
g--5-5-5-5-5-5-5-5-5-5-5-5-5-5-5-5----------------------------
d--x-x-x-x-x-x-x-x-x-x-x-x-x-x-x-x----------------------------
a--3-3-3-3-3-3-3-3-3-3-3-3-3-3-3-3----------------------------
e------------------------------------------------------

e------------------------------------------------------
b------------------------------------------------------
g--3-3-3-3-3-3-3-3-3-3-3-3-3-3-3-3----------------------------
d--x-x-x-x-x-x-x-x-x-x-x-x-x-x-x-x----------------------------
a--1-1-1-1-1-1-1-1-1-1-1-1-1-1-1-1----------------------------
e------------------------------------------------------

AFTER CHORUS

e------------------------------------------------------
b------------------------------------------------------
g-7-7-7-7-7-7-3-3-5-5--------------------------------------------
d-x-x-x-x-x-x-x-x-x-x--------------------------------------------
a-5-5-5-5-5-5-1-1-3-3--------------------------------------------
e------------------------------------------------------

e------------------------------------------------------
b------------------------------------------------------
g-7-7-7-7-7-7-3-3-5-5--------------------------------------------
d-x-x-x-x-x-x-x-x-x-x--------------------------------------------
a-5-5-5-5-5-5-1-1-3-3--------------------------------------------
e------------------------------------------------------

e------------------------------------------------------
b------------------------------------------------------
g-7-7-7-7-7-7-3-3-5-5--------------------------------------------
d-x-x-x-x-x-x-x-x-x-x--------------------------------------------
a-5-5-5-5-5-5-1-1-3-3--------------------------------------------
e------------------------------------------------------


THATS IT!

ENJOY. GIVE ME CORRECTIONS AND RATE PLEASE!
(THIS IS THE FIRST TAB FOR THIS SONG)



Important: The song above is NOT stored on the Chordie server. The original song is hosted at www.xguitar.com. Chordie works as a search engine and provides on-the-fly formatting. Chordie does not index songs against artists/composers will. To remove this song please click here.

This song is displayed as text-only. Transposing and tuning is only available for chordpro-songs.

Login - add to songbook

Rating click stars to rate

Layout
Accuracy

SHARE PAGE  




You need to log in to post comments