eToCache5 = ""; ?> Detroit by Rancid - guitar chords, guitar tabs and lyrics - chordie

Detroit

Rancid

 ADEB
e|---X----X----X----X----|
B|---X----X----X----X----|
G|---X----7----9----X----|
D|---7----7----9----9----|
A|---7----5----7----9----|
E|---5----X----X----7----|

INTRO SOLO:
note: p=pull off
h=hammer on
/=# of times note(s) are played
s=slide
e|------------------X---X----------------|
B|------------------X---X----------------|
G|------------------X---X----------------|
D|----------9-11-11-9---7----------------|
A|-7---9h11---------9---7------7-9-9-7---|
E|------------------7---5--7h9-----------|
e|-7s12//////////-7//////////-8p7p5---------------555----------15-15-15-15-|
B|-7s12//////////-7//////////-------8p7p5---------555-12-12-12-15-15-15-15-|
G|----------------------------------------8p7p5h4-----13-13-13-------------|
D|-------------------------------------------------------------------------|
A|-------------------------------------------------------------------------|
E|-------------------------------------------------------------------------|
e|-7s12//////////-7//////////-8p7p5-------8p7p5-------8p7p5-------8p7p5-------
B|-7s12//////////-7//////////-------8p7p5-------8p7p5-------8p7p5-------8p7p5-
G|----------------------------------------------------------------------------
D|----------------------------------------------------------------------------
A|----------------------------------------------------------------------------
E|----------------------------------------------------------------------------
-15p14p12----------15p14p12----------12-121212-|
----------15p14p12----------15p14p12-12-121212-|
-----------------------------------------------|
-----------------------------------------------|
-----------------------------------------------|
-----------------------------------------------|

 ADED
 Didn't know what time it was 'til the sun went down
 ADED
 Detroit, Michigan on the bus downtown
 ADED
 Last night I was fighting on the street
 ADED
 But tonight I got a girl next to me in this cold world she brings me heat!
 AED
       Got a good feeling about a bad city tonight
 AEDAED
       Got a good feeling everything's gonna be alriiiiiiight
 AEDE
 Some run some fight got a good feeling about a bad city tonight
 ADED
 Detained in illegal custody spent the night in jail
 ADED
With a drunken priest and a hooker five hundred dollars bail
 ADED
 Nobody knew who from the crew was standing there in the street like that
 ADED
 I hit the ground didn't make a sound and it just goes like that
 AED
       Got a good feeling about a bad city tonight
 AEDAED
       Got a good feeling everything's gonna be alriiiiiiight
 AEDE
 Some run some fight got a good feeling about a bad city tonight
SOLO:
note: f=half bend
F=full bend
e|----------------------888----------888-5-8-7-5---------|
B|-5f-5f-5-5f-5-5f-5f-5-888-5f-5f----888-5-8-7-5-7-5-----|
G|-8f-8f-8-8f-8-8f-8f-8-----8f-8f-7F-------------7-5---5-|
D|---------------------------------------------------7-5-|
A|---------------------------------------------------7---|
E|-------------------------------------------------------|
e|----------------------------------------------------------|
B|-------------------------------8--------------------------|
G|-7F-7F-7F-7F-5------5f----5-7F---7F-7--7--5---------555-7-|
D|---------------7-7------7-------------------5-7-5-7-------|
A|----------------------------------------------------------|
E|----------------------------------------------------------|
e|-----------------|
B|------5----------|
G|-5-7F---7F-5-5---|
D|-----------------|
A|---------------7-(let ring into feedback as bass plays intro again)
E|-----------------|

 AD
 Bus dropped me off and I had to cough
 ED
Cuz I couldn't breathe because I got ripped off
 ADE
 Couldn't realize being satisfied cuz it runs so thin
 D
And that's why I'm pissed off
 AD
 She had the money I had the time
 ED
 She had the champagne I had the cisco wine
 ADE
 She said do you wanna come cuz you better hurry
 D
 We'll have hell to pay
 AED
       Got a good feeling about a bad city tonight
 AEDAED
       Got a good feeling everything's gonna be alriiiiiiight
A E D E A(end)
Some run some fight got a good feeling about a bad city tonight
:---------------------------------------------------:

|Corrections/additional transcriptions are welcome. |
|Send them to: 'punk.tabs@telia.com' |
:---------------------------------------------------:

|The Complete Rancid Guitar Tab Compilation |
|(http://hem1.passagen.se/ak5/rancid/) |
:---------------------------------------------------:



A B D E
variations - click chord images
Transpose chords:
Tuning:
Cool service:
View: Size:
A  A  A
Rating:
Layout:
  • Currently 3/5 Stars.
  • 1
  • 2
  • 3
  • 4
  • 5
 
Accuracy:
  • Currently 2.6/5 Stars.
  • 1
  • 2
  • 3
  • 4
  • 5
 
click stars to rate
Chordie recommends:
Learn how to play guitar at JamPlay.com
Songbook:
Login to add this song to your songbook
Support the artist
Preview/buy this song
MSN Music
Why this non-profit ad?

 
login to add comments/video/corrections