F5C/E4/4
                                  Gtr I
|-------------------------|-------------------------|
|-------------------------|-------------------------|
|-------------------------|-------------------------|
|-10-10-10-10-10-10-10-10-|-10-10-10-10-10-10-10-10-|
|--8--8--8--8--8--8--8--8-|--7--7--7--7--7--7--7--7-|
|-------------------------|-------------------------|

 A5
|-----------------|-----------------||
|-----------------|-----------------||
|-----------------|-----------------||
|-----------------|-----------------||
|-7-7-7-7-7-7-7-7-|-7-7-7-7-7-7-7-7-||
|-5-5-5-5-5-5-5-5-|-5-5-5-5-5-5-5-5-||

Verse
 F5C/E
|-------------------------|-------------------------|
|-------------------------|-------------------------|
|-10-10-10-10-10-10-10-10-|--9--9--9--9--9--9--9--9-|
|-10-10-10-10-10-10-10-10-|-10-10-10-10-10-10-10-10-|
|--8--8--8--8--8--8--8--8-|--7--7--7--7--7--7--7--7-|
|-------------------------|-------------------------|

 A5/EA5/EAsus4/E
|-----------------|-----------------|
|-----------------|-----------------|
|-----------------|---------9-9-7-7-|
|-7-7-7-7-7-7-7-7-|-7-7-7-7-7-7-7-7-|
|-7-7-7-7-7-7-7-7-|-7-7-7-7-7-7-7-7-|
|-----------------|-----------------|

 F5C/E
|-------------------------|-------------------------|
|-------------------------|-------------------------|
|-------------------------|-------------------------|
|-10-10-10-10-10-10-10-10-|-10-10-10-10-10-10-10-10-|
|--8--8--8--8--8--8--8--8-|--7--7--7--7--7--7--7--7-|
|-------------------------|-------------------------|

 A5
|-----------------|-----------------|
|-----------------|-----------------|
|-----------------|-----------------|
|-----------------|-----------------|
|-7-7-7-7-7-7-7-7-|-7-7-7-7-7-7-7-7-|
|-5-5-5-5-5-5-5-5-|-5-5-5-5-5-5-5-5-|

 F5C/E
|-------------------------|-------------------------|
|-------------------------|-------------------------|
|-10-10-10-10-10-10-10-10-|--9--9--9--9--9--9--9--9-|
|-10-10-10-10-10-10-10-10-|-10-10-10-10-10-10-10-10-|
|--8--8--8--8--8--8--8--8-|--7--7--7--7--7--7--7--7-|
|-------------------------|-------------------------|

 A5/EA5/EA5
|-----------------|----------------------||
|-----------------|-------10-10-10-10-10-||
|---------------9-|-9-9-9--9--9--9--9--9-||
|-7-7-7-7-7-7-7-7-|-7-7-7--7--7--7--7--7-||
|-7-7-7-7-7-7-7-7-|-7-7-7--0--0--0--0--0-||
|-----------------|----------------------||

Bridge
N.C.
Gtr II
|-x-x-x-x-x-x-x-x-x-x-x-x-x-x-x-x-|-x-x-x-x-x-x-x-x-x-x-x-x-x-x-x-x-|
|-x-x-x-x-x-x-x-x-x-x-x-x-x-x-x-x-|-x-x-x-x-x-x-x-x-x-x-x-x-x-x-x-x-|
|-x-x-x-x-x-x-x-x-x-x-x-x-x-x-x-x-|-x-x-x-x-x-x-x-x-x-x-x-x-x-x-x-x-|
|-x-x-x-x-x-x-x-x-x-x-x-x-x-x-x-x-|-x-x-x-x-x-x-x-x-x-x-x-x-x-x-x-x-|
|-x-x-x-x-x-x-x-x-x-x-x-x-x-x-x-x-|-x-x-x-x-x-x-x-x-x-x-x-x-x-x-x-x-|
|-x-x-x-x-x-x-x-x-x-x-x-x-x-x-x-x-|-x-x-x-x-x-x-x-x-x-x-x-x-x-x-x-x-|
|-x-x-x-x-x-x-x-x-x-x-x-x-x-x-x-x-|-x-x-x-x-x-x-x-x-x-x-x-x-x-x-x-x----|
|-x-x-x-x-x-x-x-x-x-x-x-x-x-x-x-x-|-x-x-x-x-x-x-x-x-x-x-x-x-x-x-x-x----|
|-x-x-x-x-x-x-x-x-x-x-x-x-x-x-x-x-|-x-x-x-x-x-x-x-x-x-x-x-x-x-x-x-x----|
|-x-x-x-x-x-x-x-x-x-x-x-x-x-x-x-x-|-x-x-x-x-x-x-x-x-x-x-x-x-x-x-x-x----|
|-x-x-x-x-x-x-x-x-x-x-x-x-x-x-x-x-|-x-x-x-x-x-x-x-x-x-x-x-x-x-x-x-x----|
|-x-x-x-x-x-x-x-x-x-x-x-x-x-x-x-x-|-x-x-x-x-x-x-x-x-x-x-x-x-x-x-x-x----|

$
|-x-x-x-x-x-x-x-x-x-x-x-x-x-x-x-x-|-x-x-x-x-x-x-x-x-x-x-x-x-x-x-x-x-|
|-x-x-x-x-x-x-x-x-x-x-x-x-x-x-x-x-|-x-x-x-x-x-x-x-x-x-x-x-x-x-x-x-x-|
|-x-x-x-x-x-x-x-x-x-x-x-x-x-x-x-x-|-x-x-x-x-x-x-x-x-x-x-x-x-x-x-x-x-|
|-x-x-x-x-x-x-x-x-x-x-x-x-x-x-x-x-|-x-x-x-x-x-x-x-x-x-x-x-x-x-x-x-x-|
|-x-x-x-x-x-x-x-x-x-x-x-x-x-x-x-x-|-x-x-x-x-x-x-x-x-x-x-x-x-x-x-x-x-|
|-x-x-x-x-x-x-x-x-x-x-x-x-x-x-x-x-|-x-x-x-x-x-x-x-x-x-x-x-x-x-x-x-x-|
|-x-x-x-x-x-x-x-x-x-x-x-x-x-x-x-x-|-x-x-x-x-x-x-x-x-x----------------------|
|-x-x-x-x-x-x-x-x-x-x-x-x-x-x-x-x-|-x-x-x-x-x-x-x-x-x-13-x-13-x-13-x-13----|
|-x-x-x-x-x-x-x-x-x-x-x-x-x-x-x-x-|-x-x-x-x-x-x-x-x-x--x-x--x-x--x-x--x----|
|-x-x-x-x-x-x-x-x-x-x-x-x-x-x-x-x-|-x-x-x-x-x-x-x-x-x-10-x-10-x-10-x-10----|
|-x-x-x-x-x-x-x-x-x-x-x-x-x-x-x-x-|-x-x-x-x-x-x-x-x-x----------------------|
|-x-x-x-x-x-x-x-x-x-x-x-x-x-x-x-x-|-x-x-x-x-x-x-x-x-x----------------------|

 Dm
|-------x-x-x-x-x-x-x-x-x-x-x-x-|-------x-x-x-x-x-x-x-x-x-x-x-x-|
|-10-10-x-x-x-x-x-x-x-x-x-x-x-x-|-10-10-x-x-x-x-x-x-x-x-x-x-x-x-|
|-10-10-x-x-x-x-x-x-x-x-x-x-x-x-|-10-10-x-x-x-x-x-x-x-x-x-x-x-x-|
|-12-12-x-x-x-x-x-x-x-x-x-x-x-x-|-12-12-x-x-x-x-x-x-x-x-x-x-x-x-|
|-------x-x-x-x-x-x-x-x-x-x-x-x-|-------x-x-x-x-x-x-x-x-x-x-x-x-|
|-------x-x-x-x-x-x-x-x-x-x-x-x-|-------x-x-x-x-x-x-x-x-x-x-x-x-|
|-------x-x-x-x-x-x-x-x-x-x-x-x-|-------x-x-x-x-x-------------------|
|-10-10-x-x-x-x-x-x-x-x-x-x-x-x-|-10-10-x-x-x-x-x-13-x-13-x-13-x-13-|
|-10-10-x-x-x-x-x-x-x-x-x-x-x-x-|-10-10-x-x-x-x-x--x-x--x-x--x-x--x-|
|-12-12-x-x-x-x-x-x-x-x-x-x-x-x-|-12-12-x-x-x-x-x-10-x-10-x-10-x-10-|
|-------x-x-x-x-x-x-x-x-x-x-x-x-|-------x-x-x-x-x-------------------|
|-------x-x-x-x-x-x-x-x-x-x-x-x-|-------x-x-x-x-x-------------------|
|-------x-x-x-x-x-x-x-x-x-x-x-x-|-------x-x-x-x-x-x-x-x-x-x-x-x-|
|-10-10-x-x-x-x-x-x-x-x-x-x-x-x-|-10-10-x-x-x-x-x-x-x-x-x-x-x-x-|
|-10-10-x-x-x-x-x-x-x-x-x-x-x-x-|-10-10-x-x-x-x-x-x-x-x-x-x-x-x-|
|-12-12-x-x-x-x-x-x-x-x-x-x-x-x-|-12-12-x-x-x-x-x-x-x-x-x-x-x-x-|
|-------x-x-x-x-x-x-x-x-x-x-x-x-|-------x-x-x-x-x-x-x-x-x-x-x-x-|
|-------x-x-x-x-x-x-x-x-x-x-x-x-|-------x-x-x-x-x-x-x-x-x-x-x-x-|

To Coda
|-------x-x-x-x-x-x-x-x-x-x-x-x-|-------x-x-x-x-------------------------||
|-10-10-x-x-x-x-x-x-x-x-x-x-x-x-|-10-10-x-x-x-x-10-10-10-10-10-10-10-10-||
|-10-10-x-x-x-x-x-x-x-x-x-x-x-x-|-10-10-x-x-x-x-10-10-10-10-10-10-10-10-||
|-12-12-x-x-x-x-x-x-x-x-x-x-x-x-|-12-12-x-x-x-x-12-12-12-12-12-12-12-12-||
|-------x-x-x-x-x-x-x-x-x-x-x-x-|-------x-x-x-x-------------------------||
|-------x-x-x-x-x-x-x-x-x-x-x-x-|-------x-x-x-x-------------------------||

Chorus
 FC
  Gtrs I, II 
|-1-1-1-1-1-1-1-1-1-1-1-1-1-1-0-0-|-0-0-0-0-0-0-0-0-0-0-0-0-0-0-0-0-|
|-1-1-1-1-1-1-1-1-1-1-1-1-1-1-1-1-|-1-1-1-1-1-1-1-1-1-1-1-1-1-1-1-1-|
|-2-2-2-2-2-2-2-2-2-2-2-2-2-2-0-0-|-0-0-0-0-0-0-0-0-0-0-0-0-0-0-0-0-|
|-3-3-3-3-3-3-3-3-3-3-3-3-3-3-2-2-|-2-2-2-2-2-2-2-2-2-2-2-2-2-2-2-2-|
|-x-x-x-x-x-x-x-x-x-x-x-x-x-x-3-3-|-3-3-3-3-3-3-3-3-3-3-3-3-3-3-3-3-|
|-1-1-1-1-1-1-1-1-1-1-1-1-1-1-----|---------------------------------|

 Dm
|-1-1-1-1-1-1-1-1-1-1-1-1-1-1-1-1-|-1-1-1-1-1-1-1-1-1-1-1-1-1-1-1-1----|
|-3-3-3-3-3-3-3-3-3-3-3-3-3-3-3-3-|-3-3-3-3-3-3-3-3-3-3-3-3-3-3-3-3----|
|-2-2-2-2-2-2-2-2-2-2-2-2-2-2-2-2-|-2-2-2-2-2-2-2-2-2-2-2-2-2-2-2-2----|
|-0-0-0-0-0-0-0-0-0-0-0-0-0-0-0-0-|-0-0-0-0-0-0-0-0-0-0-0-0-0-0-0-0----|
|---------------------------------|------------------------------------|
|---------------------------------|------------------------------------|

 FC
|-1-1-1-1-1-1-1-1-1-1-1-1-1-1-0-0-|-0-0-0-0-0-0-0-0-0-0-0-0-0-0-0-0-|
|-1-1-1-1-1-1-1-1-1-1-1-1-1-1-1-1-|-1-1-1-1-1-1-1-1-1-1-1-1-1-1-1-1-|
|-2-2-2-2-2-2-2-2-2-2-2-2-2-2-0-0-|-0-0-0-0-0-0-0-0-0-0-0-0-0-0-0-0-|
|-3-3-3-3-3-3-3-3-3-3-3-3-3-3-2-2-|-2-2-2-2-2-2-2-2-2-2-2-2-2-2-2-2-|
|-x-x-x-x-x-x-x-x-x-x-x-x-x-x-3-3-|-3-3-3-3-3-3-3-3-3-3-3-3-3-3-3-3-|
|-1-1-1-1-1-1-1-1-1-1-1-1-1-1-----|---------------------------------|

 AmBb
|-0-0-0-0-0-0-0-0-0-0-0-0-0-0-0-0-|-0-0-1-1-1-1-1-1-1----||
|-1-1-1-1-1-1-1-1-1-1-1-1-1-1-1-1-|-1-1-3-3-3-3-3-3-3----||
|-2-2-2-2-2-2-2-2-2-2-2-2-2-2-2-2-|-2-2-3-3-3-3-3-3-3----||
|-2-2-2-2-2-2-2-2-2-2-2-2-2-2-2-2-|-2-2-3-3-3-3-3-3-3----||
|-0-0-0-0-0-0-0-0-0-0-0-0-0-0-0-0-|-0-0-1-1-1-1-1-1-1----||
|---------------------------------|----------------------||

Interlude
 D
  Gtr II
\0.5/ \0.5/ \0.5/ \0.5/ \0.5/ \0.5/ \0.5/
|--------------------------------|-------------------------------------|
|--------------------------------|-------------------------------------|
|--------------------------------|-------------------------------------|
|-12--(12)-----(12)-----(12)-----|-(12)-----(12)-----(12)-----(12)-----|
|--------------------------------|-------------------------------------|
|--------------------------------|-------------------------------------|

D.S. al Coda
\0.5/ \0.5/ \0.5/ \0.5/ \0.5/ \0.5/ \0.5/ \0.5/
|-------------------------------------|-------------------------------------||
|-------------------------------------|-------------------------------------||
|-------------------------------------|-------------------------------------||
|-(12)-----(12)-----(12)-----(12)-----|-(12)-----(12)-----(12)-----(12)-----||
|-------------------------------------|-------------------------------------||
|-------------------------------------|-------------------------------------||

Verse
&
 F5C/E
  Gtr I 
|-------------------------|-------------------------|
|-------------------------|-------------------------|
|-------------------------|-------------------------|
|-10-10-10-10-10-10-10-10-|-10-10-10-10-10-10-10-10-|
|--8--8--8--8--8--8--8--8-|--7--7--7--7--7--7--7--7-|
|-------------------------|-------------------------|

 A5
|-----------------|-----------------|
|-----------------|-----------------|
|-----------------|-----------------|
|-----------------|-----------------|
|-7-7-7-7-7-7-7-7-|-7-7-7-7-7-7-7-7-|
|-5-5-5-5-5-5-5-5-|-5-5-5-5-5-5-5-5-|

 F5C/E
|-------------------------|-------------------------|
|-------------------------|-------------------------|
|-10-10-10-10-10-10-10-10-|--9--9--9--9--9--9--9--9-|
|-10-10-10-10-10-10-10-10-|-10-10-10-10-10-10-10-10-|
|--8--8--8--8--8--8--8--8-|--7--7--7--7--7--7--7--7-|
|-------------------------|-------------------------|

 A5/EA5/EAsus4/E
|-----------------|-----------------|
|-----------------|-----------------|
|-----------------|---------9-9-7-7-|
|-7-7-7-7-7-7-7-7-|-7-7-7-7-7-7-7-7-|
|-7-7-7-7-7-7-7-7-|-7-7-7-7-7-7-7-7-|
|-----------------|-----------------|

 F5C/E
|-------------------------|-------------------------|
|-------------------------|-------------------------|
|-------------------------|-------------------------|
|-10-10-10-10-10-10-10-10-|-10-10-10-10-10-10-10-10-|
|--8--8--8--8--8--8--8--8-|--7--7--7--7--7--7--7--7-|
|-------------------------|-------------------------|

 A5Asus4
|-----------------|-----------------|
|-----------------|-----------------|
|-----------------|-----------------|
|-----------------|-----------------|
|-7-7-7-7-7-7-7-7-|-7-7-7-7-7-7-5-5-|
|-5-5-5-5-5-5-5-5-|-5-5-5-5-5-5-5-5-|

 F5C/E
|-------------------------|-------------------------|
|-------------------------|-------------------------|
|-10-10-10-10-10-10-10-10-|--9--9--9--9--9--9--9--9-|
|-10-10-10-10-10-10-10-10-|-10-10-10-10-10-10-10-10-|
|--8--8--8--8--8--8--8--8-|--7--7--7--7--7--7--7--7-|
|-------------------------|-------------------------|

 A5/EA5
|------------------|-------------------------||
|---------------10-|-10-10-10-10-10-10-10-10-||
|----------------9-|--9--9--9--9--9--9--9--9-||
|-7-7-7-7-7-7-7--7-|--7--7--7--7--7--7--7--7-||
|-7-7-7-7-7-7-7--0-|--0--0--0--0--0--0--0--0-||
|------------------|-------------------------||

Interlude
 Dm
  Gtr II
|-------------|-------------|-------------|-----------------------------|
|-10-10-------|-10-10-------|-10-10-------|-10-10---x-13-x-13-x-13-x-13-|
|-10-10-------|-10-10-------|-10-10-------|-10-10---x--x-x--x-x--x-x--x-|
|-12-12-------|-12-12-------|-12-12-------|-12-12---x-10-x-10-x-10-x-10-|
|-------------|-------------|-------------|-----------------------------|
|-------------|-------------|-------------|-----------------------------|
|-------x-x-x-x-x-x-x-x-x-x-x-x-|-------x-x-x-x-x-x-x-x-x-x-x-x-|
|-10-10-x-x-x-x-x-x-x-x-x-x-x-x-|-10-10-x-x-x-x-x-x-x-x-x-x-x-x-|
|-10-10-x-x-x-x-x-x-x-x-x-x-x-x-|-10-10-x-x-x-x-x-x-x-x-x-x-x-x-|
|-12-12-x-x-x-x-x-x-x-x-x-x-x-x-|-12-12-x-x-x-x-x-x-x-x-x-x-x-x-|
|-------x-x-x-x-x-x-x-x-x-x-x-x-|-------x-x-x-x-x-x-x-x-x-x-x-x-|
|-------x-x-x-x-x-x-x-x-x-x-x-x-|-------x-x-x-x-x-x-x-x-x-x-x-x-|
|-------x-x-x-x-x-x-x-x-x-x-x-x-|-------x-x-x-x-x-------------------|
|-10-10-x-x-x-x-x-x-x-x-x-x-x-x-|-10-10-x-x-x-x-x-13-x-13-x-13-x-13-|
|-10-10-x-x-x-x-x-x-x-x-x-x-x-x-|-10-10-x-x-x-x-x--x-x--x-x--x-x--x-|
|-12-12-x-x-x-x-x-x-x-x-x-x-x-x-|-12-12-x-x-x-x-x-10-x-10-x-10-x-10-|
|-------x-x-x-x-x-x-x-x-x-x-x-x-|-------x-x-x-x-x-------------------|
|-------x-x-x-x-x-x-x-x-x-x-x-x-|-------x-x-x-x-x-------------------|
|-------x-x-x-x-x-x-x-x-x-x-x-x-|-------x-x-x-x-x-x-x-x-x-x-x-x-|
|-10-10-x-x-x-x-x-x-x-x-x-x-x-x-|-10-10-x-x-x-x-x-x-x-x-x-x-x-x-|
|-10-10-x-x-x-x-x-x-x-x-x-x-x-x-|-10-10-x-x-x-x-x-x-x-x-x-x-x-x-|
|-12-12-x-x-x-x-x-x-x-x-x-x-x-x-|-12-12-x-x-x-x-x-x-x-x-x-x-x-x-|
|-------x-x-x-x-x-x-x-x-x-x-x-x-|-------x-x-x-x-x-x-x-x-x-x-x-x-|
|-------x-x-x-x-x-x-x-x-x-x-x-x-|-------x-x-x-x-x-x-x-x-x-x-x-x-|
|-------x-x-x-x-x-x-x-x-x-x-x----|----------------------------------------------------||
|-10-10-x-x-x-x-x-x-x-x-x-x-x-10-|-10-10-10-10-10-10-10-10-10-10-10-10-10-10-10-10----||
|-10-10-x-x-x-x-x-x-x-x-x-x-x-10-|-10-10-10-10-10-10-10-10-10-10-10-10-10-10-10-10----||
|-12-12-x-x-x-x-x-x-x-x-x-x-x-12-|-12-12-12-12-12-12-12-12-12-12-12-12-12-12-12-12----||
|-------x-x-x-x-x-x-x-x-x-x-x----|----------------------------------------------------||
|-------x-x-x-x-x-x-x-x-x-x-x----|----------------------------------------------------||

Chorus
 FC
    Gtrs I, II 
||--1-1-1-1-1-1-1-1-1-1-1-1-1-1-0-0-|-0-0-0-0-0-0-0-0-0-0-0-0-0-0-0-0-|
||o-1-1-1-1-1-1-1-1-1-1-1-1-1-1-1-1-|-1-1-1-1-1-1-1-1-1-1-1-1-1-1-1-1-|
||--2-2-2-2-2-2-2-2-2-2-2-2-2-2-0-0-|-0-0-0-0-0-0-0-0-0-0-0-0-0-0-0-0-|
||--3-3-3-3-3-3-3-3-3-3-3-3-3-3-2-2-|-2-2-2-2-2-2-2-2-2-2-2-2-2-2-2-2-|
||o-x-x-x-x-x-x-x-x-x-x-x-x-x-x-3-3-|-3-3-3-3-3-3-3-3-3-3-3-3-3-3-3-3-|
||--1-1-1-1-1-1-1-1-1-1-1-1-1-1-----|---------------------------------|

 Dm
|-1-1-1-1-1-1-1-1-1-1-1-1-1-1-1-1-|-1-1-1-1-1-1-1-1-1-1-1-1-1-1-1-1----|
|-3-3-3-3-3-3-3-3-3-3-3-3-3-3-3-3-|-3-3-3-3-3-3-3-3-3-3-3-3-3-3-3-3----|
|-2-2-2-2-2-2-2-2-2-2-2-2-2-2-2-2-|-2-2-2-2-2-2-2-2-2-2-2-2-2-2-2-2----|
|-0-0-0-0-0-0-0-0-0-0-0-0-0-0-0-0-|-0-0-0-0-0-0-0-0-0-0-0-0-0-0-0-0----|
|---------------------------------|------------------------------------|
|---------------------------------|------------------------------------|

 FC
|-1-1-1-1-1-1-1-1-1-1-1-1-1-1-0-0-|-0-0-0-0-0-0-0-0-0-0-0-0-0-0-0-0-|
|-1-1-1-1-1-1-1-1-1-1-1-1-1-1-1-1-|-1-1-1-1-1-1-1-1-1-1-1-1-1-1-1-1-|
|-2-2-2-2-2-2-2-2-2-2-2-2-2-2-0-0-|-0-0-0-0-0-0-0-0-0-0-0-0-0-0-0-0-|
|-3-3-3-3-3-3-3-3-3-3-3-3-3-3-2-2-|-2-2-2-2-2-2-2-2-2-2-2-2-2-2-2-2-|
|-x-x-x-x-x-x-x-x-x-x-x-x-x-x-3-3-|-3-3-3-3-3-3-3-3-3-3-3-3-3-3-3-3-|
|-1-1-1-1-1-1-1-1-1-1-1-1-1-1-----|---------------------------------|

 AmBb
|-0-0-0-0-0-0-0-0-0-0-0-0-0-0-0-0-|-0-0-1-1-1-1-1-1-1-----||
|-1-1-1-1-1-1-1-1-1-1-1-1-1-1-1-1-|-1-1-3-3-3-3-3-3-3----o||
|-2-2-2-2-2-2-2-2-2-2-2-2-2-2-2-2-|-2-2-3-3-3-3-3-3-3-----||
|-2-2-2-2-2-2-2-2-2-2-2-2-2-2-2-2-|-2-2-3-3-3-3-3-3-3-----||
|-0-0-0-0-0-0-0-0-0-0-0-0-0-0-0-0-|-0-0-1-1-1-1-1-1-1----o||
|---------------------------------|-----------------------||

Outro
 FC
  Gtr II 
|-1--1-1-1-1-1-1-0-|-(0)-0-0-0-0-0-0-0-|
|-1--1-1-1-1-1-1-1-|-(1)-1-1-1-1-1-1-1-|
|-2--2-2-2-2-2-2-0-|-(0)-0-0-0-0-0-0-0-|
|-3--3-3-3-3-3-3-2-|-(2)-2-2-2-2-2-2-2-|
|-x--x-x-x-x-x-x-3-|-(3)-3-3-3-3-3-3-3-|
|-1--1-1-1-1-1-1---|-------------------|

 Dm
|-1--1-1-1-1-1-1-1-|-(1)-1-1-1-1-1-1-1---|
|-3--3-3-3-3-3-3-3-|-(3)-3-3-3-3-3-3-3---|
|-2--2-2-2-2-2-2-2-|-(2)-2-2-2-2-2-2-2---|
|-0--0-0-0-0-0-0-0-|-(0)-0-0-0-0-0-0-0---|
|------------------|---------------------|
|------------------|---------------------|

 FC
|-1--1-1-1-1-1-1-0-|-(0)-0-0-0-0-0-0-0-|
|-1--1-1-1-1-1-1-1-|-(1)-1-1-1-1-1-1-1-|
|-2--2-2-2-2-2-2-0-|-(0)-0-0-0-0-0-0-0-|
|-3--3-3-3-3-3-3-2-|-(2)-2-2-2-2-2-2-2-|
|-x--x-x-x-x-x-x-3-|-(3)-3-3-3-3-3-3-3-|
|-1--1-1-1-1-1-1---|-------------------|

H.=H
 AmBb
|-0--0-0-0-0-0-0-0-|-(0)-1-1-1-1-1-1-1---|
|-1--1-1-1-1-1-1-1-|-(1)-3-3-3-3-3-3-3---|
|-2--2-2-2-2-2-2-2-|-(2)-3-3-3-3-3-3-3---|
|-2--2-2-2-2-2-2-2-|-(2)-3-3-3-3-3-3-3---|
|-0--0-0-0-0-0-0-0-|-(0)-1-1-1-1-1-1-1---|
|------------------|---------------------|

 Dm
|-^5--------|-(5)----*|
|-^6--------|-(6)----*|
|-^7--------|-(7)----*|
|-^7--------|-(7)----*|
|-^5--------|-(5)----*|
|-----------|--------*|



A5 A5/E Am Asus4 Bb C C/E D Dm F F5
variations - click chord images
Transpose chords:
Tuning:
Cool service:
View: Size:
A  A  A
Rating:
Layout:
  • Currently 2.9/5 Stars.
  • 1
  • 2
  • 3
  • 4
  • 5
 
Accuracy:
  • Currently 3.3/5 Stars.
  • 1
  • 2
  • 3
  • 4
  • 5
 
click stars to rate
Chordie recommends:
Learn how to play guitar at JamPlay.com
Songbook:
Login to add this song to your songbook
Support the artist
Preview/buy this song
MSN Music
Why this non-profit ad?

 
login to add comments/video/corrections