Guitar Tabs, Chords and Lyrics


Dosed   Red Hot Chili Peppers



Red Hot Chili Peppers - Dosed
By the Way (2002)
Music by RHCP
Tabbed by Pablo Vadillo

Guitar one, intro and verse:
    Em/B                    D  (Guitar two comes in here)
e |-12-----12-----12-----12-----10-----10-----10-----10------|R
B |------12-----12-----12-----12-----10-----10-----10-----10-|E
G |----12-----12-----12-----12-----11-----11-----11-----11---|P
D |----------------------------------------------------------|E
A |----------------------------------------------------------|A
E |----------------------------------------------------------|T

Guitar two, intro:  Fourth time:
e |-------------|   |---------------|
B |-------------|   |---------5-----|
G |-4-4-7-4--4--|   |-4-4-4-7----4--|
D |-------------|   |---------------|
A |-------------|   |---------------|
E |-------------|   |---------------|

Verse:
e |(12)10----------|P   |-20-19-17-14--15----15-14-12-----12---|
B |----------------|L   |-----------------------------15-------|
G |-------11--12---|A   |--------------------------------------|
D |----------------|Y   |--------------------------------------|
A |----------------|3   |--------------------------------------|
E |----------------|x   |--------------------------------------|

Then a half intro comes in before the next verse.

Chorus (Here I've mostly just jotted down something that fits):
e |-------------------------------15--14--12-10-|
B |-12----14-15-------12--------12--------------|
G |----------------14---------------------------|
D |---------------------------------------------|
A |---------------------------------------------|
E |---------------------------------------------|

e |-------------------------------------------------|
B |-12------12-12-12-13-12--12-12-12-12-12-15-15-15-|
G |------14-----------------------------------------|
D |-------------------------------------------------|
A |-------------------------------------------------|
E |-------------------------------------------------|
  ("All I ever wanted was your life") Play the last two bars twice.

Half intro, then verse

Chorus

"Bridge":
e |-12-12-12-12-12-12-12-12-15-15-15-15-15-15-15-15-15-|
B |----------------------------------------------------|
G |----------------------------------------------------|
D |----------------------------------------------------|
A |----------------------------------------------------|
E |----------------------------------------------------|

Solo/outtro:
e |-12-10-12-10-12-10-12-10-12-10--------|P   
B |-------------------------------12-12--|l   
G |--------------------------------------|a   
D |--------------------------------------|y   
A |--------------------------------------|2   
E |--------------------------------------|x   

e |--------------------------------------------|
B |-13-13-13-13--13-13-13-12-------------------|
G |--------------------------12-12-12-11-12-12-|
D |--------------------------------------------|
A |--------------------------------------------|
E |--------------------------------------------|

e |-----------------------------------------|
B |--13-12-13-12-13-12----------------------|
G |--------------------12-11--11--11--12-12-|
D |-----------------------------------------|
A |-----------------------------------------|
E |-----------------------------------------|

                       |hold bend       |release  |hold bend |release
e |------------------------------------------------------------------|
B |-15--15-15-15-15-----------------------------------------------15-|
G |-----------------16^-16^-16^-16^-16^-16-16--16^--16^--16^--16-----|
D |------------------------------------------------------------------|
A |------------------------------------------------------------------|
E |------------------------------------------------------------------|

That'll be the stuff you need for now! I'll work more on this when the album's
released. Enjoy!
--- Pablo or LG ThatGuy


Important: The song above is NOT stored on the Chordie server. The original song is hosted at www.xguitar.com. Chordie works as a search engine and provides on-the-fly formatting. Chordie does not index songs against artists/composers will. To remove this song please click here.

This song is displayed as text-only. Transposing and tuning is only available for chordpro-songs.

Login - add to songbook

Rating click stars to rate

Layout
Accuracy

SHARE PAGE  




You need to log in to post comments