Chordie logo


Around The World   Red Hot Chili Peppers



Tab for "Around the World"
From Californication
By The Red Hot Chili Peppers.

Tabbed by:Davin Agatep
ShrimpDog2000@aol.com

Intro:
                  (wooooooooooooooo!!!!!!!)

E:--12----12----12-----------------------------------------
B:--12----12----12-----------------------------------------
G:--14b---14b---14b----------------------------------------
D:---------------------------------------------------------
A:---------------------------------------------------------
E:---------------------------------------------------------

This is when the rockin intro stops and the verse begins. This is played
during the verse as well:
                                     "All around the world we can..."
E:---------------------------------------------------------
B:---------------------------------------------------------
G:---------------------------------------------------------
D:---3--5----3--5----3--5-----3--5----3--5-------3--5------
A:-5----------------------5-------------------5------------
E:---------------------------------------------------------
E:-------------------------------
B:-------------------------------
G:-------------------------------
D:---3--5----3--5-----3-5----3-5-
A:------------------5------------
E:-------------------------------
       "I know I know for sure’Ķ"

 (aaaaaaaaahhhhh, aaahhhhhh, aaaaaaaaahhh’Ķ)
E:---------------------------------------------------------
B:---------------------------------------------------------
G:-------------------8----------------------10-8-----------
D:-8h10-10--8-10-10----10-8h10-10--8-10-10--------8h10-10--
A:---------------------------------------------------------
E:---------------------------------------------------------



E:---------------------------------------------------------
B:---------------------------------------------------------
G:---------------------------------------------------------
D:-8-10-10-10-8--------------8------8------8-----8h10------
A:---------------8h10---8h10----10------10-----------------
E:---------------------------------------------------------
  *Repeat through chorus

Verse repeats

Intro part

Verse

Chorus

Outro:
 Its just these three chords that he strums for four measures each.

E: 13     15     17
B: 15     17     19
G: 14     16     18
D: 15     17     19
A:
E:

h - hammer on
b - bend string up
r - release bend

______________________________

Person: chris madill

song: around the world (lead version)

artist: red hot chili peppers

tab: intro
GUITAR
E:--12----12-12---12----12-12----12----12-12--
B:--12----12-12---12----12-12----12----12-12--
G:--14^---14-14r--14^---14-14r---14^---14-14r-
D:--------------------------------------------
A:--------------------------------------------
E:--------------------------------------------

BASS ( arranged for guitar )
E:-------------------------------------------------
B:-------------------------------------------------
G:-7h9-9---7h9-9---7h9-9---7h9-7-------------------
D:-------------------------------9--8--7--5--------
A:-------------------------------------------7--5--
E:-------------------------------------------------
VERSE repeat as many times as needed. Pick near the bridge for
the twangy sound.
E:---------------------------
B:---------------------------
G:---------------------------
D:-3-5-3-5-3-5---0-3-5-3-5---
A:---------------------------
E:---------------------------

CHORUS repeat a few times:
E:--------------------------------------------------
B:--------------------------------------------------
G:--------------------8------------------------10-8-
D:-10--10----8-8-10-----10---8h10-10---8-10-10------
A:--------------------------------------------------
E:--------------------------------------------------

E:-------------------
B:-------------------
G:-------------8-----
D:-8h10----------10--
A:------10-11--------
E:-------------------

FUNKY BASS PART ( it sounds really cool so I transcribed it for guitar
)
E:---------------------------------------------------
B:---------------------------------------------------
G:-----10--12--------9--10-----10--12------10-9------
D:----------------------------------------------8~~--
A:---------------------------------------------------
E:--3---------0--1----------3---------0-1------------

E:---------------------------------------------------
B:---------------------------------------------------
G:-----10--12--------9--10-----10--12----------------
D:-------------------------------------------3-2-----
A:-----------------------------------------1-----1---
E:--3---------0--1----------3----------1-3---------1-

Don’t forget to write me at crm90@hotmail.com

(please, no death threats)



Important: The song above is NOT stored on the Chordie server. The original song is hosted at www.xguitar.com. Chordie works as a search engine and provides on-the-fly formatting. Chordie does not index songs against artists/composers will. To remove this song please click here.

This song is displayed as text-only. Transposing and tuning is only available for chordpro-songs.

Login - add to songbook

Rating click stars to rate

Layout
Accuracy

SHARE PAGE  




You need to log in to post comments