Guitar Tabs, Chords and Lyrics


Drunk Again    Reel Big Fish



Reel Big Fish - Drunk Again
Tabbed By: Bert
EMail: loser_guitarist@hotmail.com
album: Cheer Up!

this is one of the best songs on the album.  the part that follows is
something I made up that sounds great with the song.  the guitar
that's actually in the song is really quiet most of the time and
pretty boring so I made a cool one up.  enjoy

intro (either acoustic or clean electric):
   F     |      |Am    |      |G     |      |Dbm   |C     |
E:-------|1-----|------|0-----|------|3-----|----4-|----3-|
B:-----1-|--1---|----1-|--1---|----3-|--3---|--5---|--5---|
G:---2---|----2-|--2---|----2-|--0---|----0-|6-----|5-----| repeat
D:-3-----|------|2-----|------|0-----|------|------|------| once
A:-------|------|------|------|------|------|------|------|
E:-------|------|------|------|------|------|------|------|
   1 2 3 |1 2 3 |1 2 3 |1 2 3 |1 2 3 |1 2 3 |1 2 3 |1 2 3 |

note: for the verses, the rhythm is:  since each chord goes for 2
bars, the first bar let it ring, then the second bar make it staccato.

   ring  |stop  |ring  |stop

get it?  if not, just listen closely to the song, and you'll hear
what i'm talking about.  now back to the tab.

   F     |F     |Am    |Am    |G     |G     |Dbm   |C     |
E:-------|1-----|------|0-----|------|3-----|----4-|----3-|
B:-------|1-----|------|1-----|------|3-----|--5-5-|--5-5-|
G:-2-----|2-----|2-----|2-----|0-----|------|6---6-|5---5-|
D:-3-----|------|2-----|------|0-----|------|------|------|
A:-------|------|------|------|------|------|------|------|
E:-------|------|------|------|------|------|------|------|
   1 2 3 |1 2 3 |1 2 3 |1 2 3 |1 2 3 |1 2 3 |1 2 3 |1 2 3 |
  If I had a dollar bill for every...
 So hand me down my best dress shoes...

play first two bars of intro twice

   F     |F     |Am    |Am    |G     |G     |Dbm   |C     |
E:-------|1-----|------|0-----|------|3-----|----4-|----3-|
B:-------|1-----|------|1-----|------|3-----|--5-5-|--5-5-|
G:-2-----|2-----|2-----|2-----|0-----|------|6---6-|5---5-|
D:-3-----|------|2-----|------|0-----|------|------|------|
A:-------|------|------|------|------|------|------|------|
E:-------|------|------|------|------|------|------|------|
   1 2 3 |1 2 3 |1 2 3 |1 2 3 |1 2 3 |1 2 3 |1 2 3 |1 2 3 |
   All I wanna do all day is spend it...
 So I'll try and find a place where no one will ask me...

kick in the distortion, let all chords ring for entire measure:
   F     |F     |Eb    |Eb    |G     |G     |Db    |C     |
E:-------|------|------|------|------|------|------|------|
B:-------|------|------|------|------|------|------|------|
G:-10----|10----|8-----|8-----|12----|12----|6-----|5-----|10
D:-x-----|x-----|x-----|x-----|x-----|x-----|x-----|x-----|x
A:-8-----|8-----|6-----|6-----|10----|10----|4-----|3-----|8
E:-------|------|------|------|------|------|------|------|
   1 2 3 |1 2 3 |1 2 3 |1 2 3 |1 2 3 |1 2 3 |1 2 3 |1 2 3 |
Cuz now, I'm drunk again...
Cuz now, it's all the same...

turn off distortion

during the short little instrumental section before the next verse,
you could either play the first two bars of the intro twice OR you
could play a tiny solo.  nothing specific, just mess around with frets
9, 10, and 12 for the G, D, and high E

   F     |F     |Am    |Am    |G     |G     |Dbm   |C     |
E:-------|1-----|------|0-----|------|3-----|----4-|----3-|
B:-------|1-----|------|1-----|------|3-----|--5-5-|--5-5-|
G:-2-----|2-----|2-----|2-----|0-----|------|6---6-|5---5-|
D:-3-----|------|2-----|------|0-----|------|------|------|
A:-------|------|------|------|------|------|------|------|
E:-------|------|------|------|------|------|------|------|
   1 2 3 |1 2 3 |1 2 3 |1 2 3 |1 2 3 |1 2 3 |1 2 3 |1 2 3 |
   Have you ever wanted to wake up from your dreaming...
So walk out the door with me on the floor...

kick in the distortion

   F     |F     |Eb    |Eb    |G     |G     |Db    |C     |
E:-------|------|------|------|------|------|------|------|
B:-------|------|------|------|------|------|------|------|
G:-101010|101010|8-8-8-|8-8-8-|121212|121212|6-----|5-----|
D:-x-x-x-|x-x-x-|x-x-x-|x-x-x-|x-x-x-|x-x-x-|x-----|x-----|
A:-8-8-8-|8-8-8-|6-6-6-|6-6-6-|101010|101010|4-----|3-----|
E:-------|------|------|------|------|------|------|------|
   1 2 3 |1 2 3 |1 2 3 |1 2 3 |1 2 3 |1 2 3 |1 2 3 |1 2 3 |
Cuz now, I'm drunk again...
Cuz now, it's all the same...

kick in the distortion, let D string notes ring and play low E string
notes staccato, except on the E chord:
   A     |A     |F#    |F#    |F     |F     |E     |E     |
E:-------|------|------|------|------|------|------|------|
B:-------|------|------|------|------|------|------|------|
G:-------|------|------|------|------|------|------|------|
D:-7-----|7-----|4-----|4-----|3-----|3-----|2-----|2-----|
A:-x-----|x-----|x-----|x-----|x-----|x-----|2-----|2-----|
E:-5-5-5-|5-5-5-|2-2-2-|2-2-2-|1-1-1-|1-1-1-|0-----|0-----|
   1 2 3 |1 2 3 |1 2 3 |1 2 3 |1 2 3 |1 2 3 |1 2 3 |1 2 3 |
   Some people have a gift...

this time, hit both string every time, but not staccato
   A     |A     |F#    |F#    |F     |F     |E     |E     |
E:-------|------|------|------|------|------|------|------|
B:-------|------|------|------|------|------|------|------|
G:-------|------|------|------|------|------|------|------|
D:-7-7-7-|7-7-7-|4-4-4-|4-4-4-|3-3-3-|3-3-3-|2-2-2-|2-2-2-|
A:-x-x-x-|x-x-x-|x-x-x-|x-x-x-|x-x-x-|x-x-x-|2-2-2-|2-2-2-|
E:-5-5-5-|5-5-5-|2-2-2-|2-2-2-|1-1-1-|1-1-1-|0-0-0-|0-0-0-|
   1 2 3 |1 2 3 |1 2 3 |1 2 3 |1 2 3 |1 2 3 |1 2 3 |1 2 3 |
   When sometimes I think I catch you cracking..

   F     |F     |E     |E     |F     |F     |G     |G     |F     |F     |E     |
E:-------|------|------|------|------|------|------|------|------|------|--12*-|
B:-------|------|------|------|------|------|------|------|------|------|------|
G:-10----|10----|9-----|9-----|10----|10----|12----|12----|10----|10----|9-----|
D:-x-----|x-----|x-----|x-----|x-----|x-----|x-----|x-----|x-----|x-----|x-----|
A:-8-----|8-----|7-----|7-----|8-----|8-----|10----|10----|8-----|8-----|7-----|
E:-------|------|------|------|------|------|------|------|------|------|------|
   1 2 3 |1 2 3 |1 2 3 |1 2 3 |1 2 3 |1 2 3 |1 2 3 |1 2 3 |1 2 3 |1 2 3 |1 2 3 |

*=hold and bend

   F     |F     |Eb    |Eb    |G     |G     |Db    |C     |
E:-------|------|------|------|------|------|------|------|
B:-------|------|------|------|------|------|------|------|
G:-101010|101010|8-8-8-|8-8-8-|121212|121212|6-----|5-----|
D:-x-x-x-|x-x-x-|x-x-x-|x-x-x-|x-x-x-|x-x-x-|x-----|x-----|
A:-8-8-8-|8-8-8-|6-6-6-|6-6-6-|101010|101010|4-----|3-----|
E:-------|------|------|------|------|------|------|------|
   1 2 3 |1 2 3 |1 2 3 |1 2 3 |1 2 3 |1 2 3 |1 2 3 |1 2 3 |
Cuz now, I'm drunk again...
Cuz now, it's all the same...
Cuz now, it's all the same...
So go, walk out the door...

turn off distortion

   F     |      |Am    |      |G     |      |Dbm   |C     |
E:-------|1-----|------|0-----|------|3-----|----4-|------|
B:-----1-|--1---|----1-|--1---|----3-|--3---|--5---|------|
G:---2---|----2-|--2---|----2-|--0---|----0-|6-----|5-----|
D:-3-----|------|2-----|------|0-----|------|------|------|
A:-------|------|------|------|------|------|------|------|
E:-------|------|------|------|------|------|------|------|
   1 2 3 |1 2 3 |1 2 3 |1 2 3 |1 2 3 |1 2 3 |1 2 3 |1 2 3 |
 Again...

   F     |      |Am    |      |G     |      |Dbm   |C     |
E:-------|1-----|------|0-----|------|3-----|----4-|----3-|
B:-----1-|--1---|----1-|--1---|----3-|--3---|--5---|--5---|
G:---2---|----2-|--2---|----2-|--0---|----0-|6-----|5-----|
D:-3-----|------|2-----|------|0-----|------|------|------|
A:-------|------|------|------|------|------|------|------|
E:-------|------|------|------|------|------|------|------|
   1 2 3 |1 2 3 |1 2 3 |1 2 3 |1 2 3 |1 2 3 |1 2 3 |1 2 3 |
  If i had a dollar bill for every...




Important: The song above is NOT stored on the Chordie server. The original song is hosted at www.xguitar.com. Chordie works as a search engine and provides on-the-fly formatting. Chordie does not index songs against artists'/composers' will. To remove this song please click here.

This song is displayed as text-only. Transposing and tuning is only available for chordpro-songs.

Login - add to songbook

Rating click stars to rate

Layout
Accuracy

SHARE PAGE  




You need to log in to post comments