Guitar Tabs, Chords and Lyrics


Good Thing    Reel Big Fish



Artist: Reel Big Fish
Song: Good Thing
Album: Cheer Up (track 1)
Tabber: Jack Kelly

I'v updated it now as im about 50 times better at guitar now
and iv redone the fill, the solo, and the fall so now theyre
pretty much 100%. I did this because some people were asking
for it but it was i pit off.
I love this song so i thought i would tab it and send it in.

    C C G   Bb Bb F  F F F
e -----(3)-------(1) -----------
B --5-5(3)--3--3-(1) -----------
G --5-5-4---3--3--2- -----------
D --5-5-5---3--3--3- 3-3-3------
A --3-3-5---1--1--3- 3-3-3------
E ------3---------1- 1-1-1------
                     |--PM--|

Keep playing this until 28 seconds in and then stop
doing the palm muting bit at the end and just carry
on until 41 seconds in and play this twice:


 F F F
 ------------
 ------------
 ------------
 -3-3-3------
 -3-3-3------
 -1-1-1------
|--PM--|

and then:

     C Dm  F G
e ---------1-3---
B ---5-6---1-3---
G ---5-7---2-4---
D ---5-7---3-5---
A ---3-5---3-5---
E ---------1-3---


Then at 60 secs play this 3 times:

     C C Dm  F F G
e -----------1-1-3---
B ---5-5-6---1-1-3---
G ---5-5-7---2-2-4---
D ---5-5-7---3-3-5---
A ---3-3-5---3-3-5---
E -----------1-1-3---

the at 68 secs a Solo type bit plays:

e ------------------------------------------------
B ------------------------------------------------
G ----7^-5~---7^-5----------5-7--5----5-5^---5---
D ----------------------5-7----------------7------
A ------------------------------------------------
E ------------------------------------------------


Then back to this:


    C C G   Bb Bb F
e -----(3)-------(1)
B --5-5(3)--3--3-(1)
G --5-5-4---3--3--2-
D --5-5-5---3--3--3-
A --3-3-5---1--1--3-
E ------3---------1-


Then:


 F F F
 ------------
 ------------
 ------------
 -3-3-3------
 -3-3-3------
 -1-1-1------
|--PM--|


Then at 93 secs:


     C Dm  F G
e ---------1-3---
B ---5-6---1-3---
G ---5-7---2-4---
D ---5-7---3-5---
A ---3-5---3-5---
E ---------1-3---


THen Back to:


     C C Dm  F F G
e -----------1-1-3---
B ---5-5-6---1-1-3---
G ---5-5-7---2-2-4---
D ---5-5-7---3-3-5---
A ---3-3-5---3-3-5---
E -----------1-1-3---


Then:


 F F F
 ------------
 ------------
 ------------
 -3-3-3------
 -3-3-3------
 -1-1-1------
|--PM--|




Then at 124 secs:


     Am             F         C G
e ---5----------------------|----------  x2
B ---5----------------------|-5--------
G ---5----------------------|-5--------
D ---7--------------333333--|-5-5------
A ---7--5-3---------333333--|-3-5------
E ---5------5-3-0---111111--|---3------
                    --PM--

Then a tricky solo at 139 secs (I think i have it 99%
accurate post any comments on corrections if u want:



e ----------------17-------------------------------------
B -------------------20-17----------17-------------------
G --19^-19^-19-17----------19-17-19----------------------
D -------------------------------------19-17(pick fast)--
A -------------------------------------------------------
E -------------------------------------------------------


e -------------------------------------------------------
B -----------------------------------17h20p17------------
G --------17-------17^-17^-17^-17h19----------19^-19^-17-
D --17-19----17-19---------------------------------------
A -------------------------------------------------------
E -------------------------------------------------------

e -------------------------------------------------------
B -------------------------------------------------------
G --17---------------------------------------------------
D -----20-19---------------------------------------------
A -----------20-19-20-17----17---------------------------
E -----------------------20----20-19-17------------------



Then after that:



     C Dm  F G
e ---------1-3---
B ---5-6---1-3---
G ---5-7---2-4---
D ---5-7---3-5---
A ---3-5---3-5---
E ---------1-3---


Until the end! This took me ages to figure out and i
cut my fecking finger on the B string in the process!




Important: The song above is NOT stored on the Chordie server. The original song is hosted at www.xguitar.com. Chordie works as a search engine and provides on-the-fly formatting. Chordie does not index songs against artists'/composers' will. To remove this song please click here.

This song is displayed as text-only. Transposing and tuning is only available for chordpro-songs.

Login - add to songbook

Rating click stars to rate

Layout
Accuracy

SHARE PAGE  




You need to log in to post comments