Guitar Tabs, Chords and Lyrics


Rock 'N' Roll Is Bitchin'    Reel Big Fish



Song: Rock 'n' roll is bitchin'
Band: Reel Big Fish
Tabber: Gary Gatehouse

for all of you cock ends the verse is below where it has always been. you play the notes using an auto wah wah and for the bastard whos on about the solo all i can say is you try and tab it. bastards. to everyone who has rated this song are a load of cocks because they are saying how crap the tab is but have they subbmitted one NO so they should just shut up especially eddy61 and lessthanhugh what a load of cocks

This is the main riff played through the intro and chourus

e---------------------------------------------------------------------
B---------------------------------------------------------------------
G----------------9-7--6--7-7-------------------------------------
D--------2-2-----9-7--6--7-7-7-5---------------------------------
A--------2-2-----7-5--4--5-5-7-5---------------------------------
E--2/----0-0-----------------5-3-----------------------------------

Riff between verses

e----------
B----------
G----------
D-7-5------
A-7-5------
E-5-3------


Verse Riff (played with auto wah wah)

e-----------------------
B-----------------------
G-----------------------
D-----------------------
A-----7-5-4-5-5---------
E-0-0-----------5-3-----


then the solos which i dont know just improvise

please rate this!



Important: The song above is NOT stored on the Chordie server. The original song is hosted at www.xguitar.com. Chordie works as a search engine and provides on-the-fly formatting. Chordie does not index songs against artists'/composers' will. To remove this song please click here.

This song is displayed as text-only. Transposing and tuning is only available for chordpro-songs.

Login - add to songbook

Rating click stars to rate

Layout
Accuracy

SHARE PAGE  




You need to log in to post comments