Somebody Loved Me

Reel Big Fish

E:-----------------|----------------|----------------|----------------|

B:-----------------|----------------|----------------|----------------|
G:---------5-4-2---|--------5-4-2---|--------5-4-2---|------5---5-5---|
D:-5-------------4-|--------------3-|--------------2-|----2-----------|
A:-----------------|----------------|----------------|----------------|
E:-----------------|----------------|----------------|----------------|
E:---------------10|--------------9-|--------------7-|--7-7-5---5-5---|
B:---------10------|--------10------|--------10------|----------------|
G:-9-----------9---|------------9---|------------9---|----------------|
D:-----------------|----------------|----------------|----------------|
A:-----------------|----------------|----------------|----------------|
E:-----------------|----------------|----------------|----------------|

 AC#DEB
G:------6---7---9------
D:--7---6---7---9---9--
A:--7---4---5---7---9--
E:--5---------------7--


rock intro:
A C# D C# A | C# C# D D C# D |
1 + 2 + 3 + 4 + |1 + 2 + 3 + 4 + | repeat

verse: palm muted
E E E E E E E E |C# C# C# C# D D D D |
1 + 2 + 3 + 4 + |1 + 2 + 3 + 4 + | repeat

pre-chorus:
 C#C#DDDD
1  +  2  +  3  +  4  +  | repeat

chorus: let the chord ring for whole bar
A |B |C# |D |
1 + 2 + 3 + 4 + |1 + 2 + 3 + 4 + |1 + 2 + 3 + 4 + |1 + 2 + 3 + 4 + |repeat

during the guitar solo, the rhythm plays the rock intro part

tabbed out 10/7/02 by =bert=
===========Reel Big Fish - Somebody Loved Me
Tabbed By: Bert
EMail: loser_guitarist@hotmail.com
album: Cheer Up!

this is a correction to my previous tab of this song. the intro
guitar part where 2 clean guitars are playing at the same time, the
second part doesn't repeat. instead it plays what i already tabbed,
then does this:

e:-9--10-9--7-----5--------|     |9--------9--9--7--------|
b:-------------------------|play |------------------------|
g:-------------------------|three|------------------------|
d:-------------------------|times|------------------------|
a:-------------------------|     |------------------------|
e:-------------------------|     |------------------------|

1 + 2 + 3 + 4 + | |1 + 2 + 3 + 4 + |

there. much better.

fixed 10/9/02 by =bert=


A B C# D E
variations - click chord images
Transpose chords:
Tuning:
Cool service:
View: Size:
A  A  A
Rating:
Layout:
  • Currently 3.3/5 Stars.
  • 1
  • 2
  • 3
  • 4
  • 5
 
Accuracy:
  • Currently 2.8/5 Stars.
  • 1
  • 2
  • 3
  • 4
  • 5
 
click stars to rate
Chordie recommends:
Learn how to play guitar at JamPlay.com
Songbook:
Login to add this song to your songbook
Support the artist
Preview/buy this song
MSN Music
Why this non-profit ad?

 
login to add comments/video/corrections