Guitar Tabs, Chords and Lyrics


Beer    Reel Big Fish



REEL BIG FISH - BEER
Tabbed by: John (xcheesevandalx@aol.com)

Key
~     = let the note ring out
..    = palm mute
/     = slide up
\     = slide down
h     = hammer-on                                                                                  p     = pull-off
v     = vibrato

0:00
RHYTHM GUITAR:
                                      (repeat throughout song)
e|--5-5-x-5-x-5--1-1-x-1-x-1--0-0-x-0-x-0--3-3-x-3-x-3-------|
B|--5-5-x-5-x-5--1-1-x-1-x-1--1-1-x-1-x-1--3-3-x-3-x-3-------|
G|--5-5-x-5-x-5--2-2-x-2-x-2--0-0-x-0-x-0--0-0-x-0-x-0-------|
D|--7-7-x-7-x-7--3-3-x-3-x-3--2-2-x-2-x-2--0-0-x-0-x-0-------|
A|----------------------------3-3-x-3-x-3--2-2-x-2-x-2-------|
E|-----------------------------------------3-3-x-3-x-3-------|

0:09
INTRO:
e|------------------8-10-12-12-10-8-10---------------------|
B|---8-8--8---8/10-----------------------10----------------|
G|----------9-------------------------------9-7-5-7-5---5--|
D|----------------------------------------------------7----|
A|---------------------------------------------------------|
E|---------------------------------------------------------|

e|-------------------------------|
B|-------------------------------|
G|-----------7b-7b-7b-5---5------|
D|-------5---------7b---7--------|
A|---5/7---7---------------------|
E|-------------------------------|


0:18
VERSE:
e|---5-5-x-5-x-5--1-1-x-1-x-1--3-3-x-3-x-3--3-3-x-3-x-3-----|
B|---5-5-x-5-x-5--1-1-x-1-x-1--5-5-x-5-x-5--3-3-x-3-x-3-----|
G|---5-5-x-5-x-5--2-2-x-2-x-2--5-5-x-5-x-5--4-4-x-4-x-4-----|
D|----------------------------------------------------------| (x3)
A|----------------------------------------------------------|
E|----------------------------------------------------------|

e|---5-5-x-5-x-5--1-1-x-1-x-1-|-----------------------------|
B|---5-5-x-5-x-5--1-1-x-1-x-1-|-----------------------------|
G|---5-5-x-5-x-5--2-2-x-2-x-2-|-5-5-5-5-5-5-----------------|
D|----------------------------|-5-5-5-5-5-5--5-5-5-5-5-5----|
A|----------------------------|-3-3-3-3-3-3--5-5-5-5-5-5----|
E|----------------------------|--------------3-3-3-3-3-3----|
                                ^ distortion

0:37
CHORUS:
e|--------------------------------------------------|
B|--------------------------------------------------|
G|---------------5-5-5-5-5-5------------------------| (x4)
D|--3-3-3-3-3-3--5-5-5-5-5-5--5-5-5-5-5-5-5-5-5-5---|
A|--3-3-3-3-3-3--3-3-3-3-3-3--5-5-5-5-5-5-5-5-5-5---|
E|--1-1-1-1-1-1---------------3-3-3-3-3-3-3-3-3-3---|


0:55
REPEAT INTRO


1:04
REPEAT VERSE


1:22
REPEAT CHORUS


1:40
SOLO:

e|-----------------------------------------------------------------|
B|---10b-10b-10p8---8----------------------------------------------|
G|----------------9---9-8-7-5---7b----------------/9-9-9-7-5-------|
D|----------------------------7-7b-7----7v----7v-------------7-----|
A|-----------------------------------------------------------------|
E|------------------------------------5-----5----------------------|

e|----------------------------10b12-10b12-8---------|
B|------------------------------------------10------|
G|--------------------------------------------------|
D|---5/7--7-7--5--5-7--7-7--------------------------|
A|---x-x--x-x--x--x-x--x-x--------------------------|
E|---3/5--5-5--3--3/5--5-5--------------------------|

     |-----------TREMOLO PICKING------------------------------------|
e|--/17-17-17-17-17-17-17-/20-20-20-20-20-20-20-/22-22-22-22-22-22-22-|
B|--/17-17-17-17-17-17-17-/20-20-20-20-20-20-20-/22-22-22-22-22-22-22-|
G|--------------------------------------------------------------------|
D|--------------------------------------------------------------------|
A|--------------------------------------------------------------------|
E|--------------------------------------------------------------------|

e|----------------|
B|----------------|
G|----------------|
D|----------------|
A|----------------|
E|--\pick slide\--|

1:59
REGGAE PART:

(rhythm guitar)                                 (repeat)
e|--5-5-x-5---1-1-x-1---3-3-x-3---(3-3-3-3)------------|
B|--5-5-x-5---1-1-x-1---5-5-x-5---(3-3-3-3)------------|
G|--5-5-x-5---2-2-x-2---5-5-x-5---(4-4-4-4)------------|
D|-----------------------------------------------------|
A|---------------------------------^^^^^^^-------------|
E|---------------------------------play this muted-----|

lead guitar  (listen for timing!)
e|-----(2:02)------|--(2:07)-------------------|
B|-----------------|---------------------------|
G|-----7b-7--5-----|------------5--7--5--------|
D|-----7b-7----7~--|-------5-------------7-----|
A|-----------------|-5--7-----7----------------|
E|-----------------|---------------------------|
P.M.                 .  .  .  .

e|--5-5-x-5---1-1-x-1---3-3-x-3---(3-3-3-3)------------|
B|--5-5-x-5---1-1-x-1---5-5-x-5---(3-3-3-3)------------|
G|--5-5-x-5---2-2-x-2---5-5-x-5---(4-4-4-4)------------| (x3)
D|-----------------------------------------------------|
A|---------------------------------^^^^^^^-------------|
E|---------------------------------play this muted-----|

e|--5-5-x-5---1-1-x-1-----------------------------------------------|
B|--5-5-x-5---1-1-x-1-----------------------------------------------|
G|--5-5-x-5---2-2-x-2-5-5-5-5-5-----------------/-12-12-12-12-12-12-|
D|--------------------5-5-5-5-5--5-5-5-5-5-5-5--/--x--x--x--x--x--x-|
A|--------------------3-3-3-3-3--5-5-5-5-5-5-5--/-10-10-10-10-10-10-|
E|-------------------------------3-3-3-3-3-3-3----------------------|
                      ^  distortion


2:28
REPEAT CHORUS


2:46
POST CHORUS:
                                                                   (x3)
e|--------------------------------------------------------------------|
B|--------------------------------------------------------------------|
G|--2-2-2-2-2-2-2-2-----------------5-5-5-5-5-5-5-5-------------------|
D|--2-2-2-2-2-2-2-2-3-3-3-3-3-3-3-3-5-5-5-5-5-5-5-5-5-5-5-5-5-5-5-5---|
A|--0-0-0-0-0-0-0-0-3-3-3-3-3-3-3-3-3-3-3-3-3-3-3-3-5-5-5-5-5-5-5-5---|
E|------------------1-1-1-1-1-1-1-1-----------------3-3-3-3-3-3-3-3---|

2:59
REPEAT INTRO


3:08
OUTRO:
e|--------------------------------------------------------------------|
B|--------------------------------------------------------------------|
G|--------------10-10-10-10-10-10-------------------12-12-12-12-12-12-|
D|--7-7-7-7-7-7--x--x--x--x--x--x-10-10-10-10-10-10--x--x--x--x--x--x-|
A|--x-x-x-x-x-x--8--8--8--8--8--8--x--x--x--x--x--x-10-10-10-10-10-10-|
E|--5-5-5-5-5-5--------------------8--8--8--8--8--8-------------------|

e|--------------------------------------------------------------------|
B|--------------------------------------------------------------------|
G|-14-14-14-14-14-14-10-10-10-10-10-10-17-17-17-17-17-17-12-12-12-12~-|
D|--x--x--x--x--x--x--x--x--x--x--x--x--x--x--x--x--x--x--x--x--x--x--|
A|-12-12-12-12-12-12--8--8--8--8--8--8-15-15-15-15-15-15-10-10-10-10~-|
E|--------------------------------------------------------------------|


END ON:

e|--5~--5x---|
B|--5~--5x---|
G|--5~--5x---|
D|--7~--7x---|
A|-----------|


Important: The song above is NOT stored on the Chordie server. The original song is hosted at www.xguitar.com. Chordie works as a search engine and provides on-the-fly formatting. Chordie does not index songs against artists'/composers' will. To remove this song please click here.

This song is displayed as text-only. Transposing and tuning is only available for chordpro-songs.

Login - add to songbook

Rating click stars to rate

Layout
Accuracy

SHARE PAGE  




You need to log in to post comments