Guitar Tabs, Chords and Lyrics


Go Away    Reel Big Fish



Band:Reel Big Fish
Album:Everything Sucks
Song:Go Away
Tabber:Jamydod

Intro(With Heavy Distortion This sounds amazing
Up and Down strokes fast!
E---------------------------------------
B---------------------------------------
G---------------------------------------
D-5xxxxx5xxxx55-------------------------
A-3xxxxx3xxxx33-3-2-1-0-----------------
E---------------------------------------

Verse
E---------------------------------------
B---------------------------------------
G---------------------------------------
D---------------------------------------
A--22---7--6-77-9-3---------------------
E--00---7--4-55-7-5---------------------

Chorus
E-----------------------------------------
B-----------------------------------------
G-----------------------------------------
D-----------------------------------------
A---99--77--55--99--33-55-44--------------
E---77--55--33--77--55-33-22--------------

Order
Intro x2
Verse x6
chorus x2
solo (dont know) x1
chorus x1


Important: The song above is NOT stored on the Chordie server. The original song is hosted at www.xguitar.com. Chordie works as a search engine and provides on-the-fly formatting. Chordie does not index songs against artists'/composers' will. To remove this song please click here.

This song is displayed as text-only. Transposing and tuning is only available for chordpro-songs.

Login - add to songbook

Rating click stars to rate

Layout
Accuracy

SHARE PAGE  




You need to log in to post comments