Guitar Tabs, Chords and Lyrics


Fire    Reel Big Fish



Intro:
e---------------------5-------------------------------10------14---
b---------------------7-------------------------------10--------15-
g---------------------7---------14-----------12-------11-----------
d-------7--------5----7-------14--14-------12--12-----12-----------
a-----7---7----5-----------12------------10------------------------
e---5--------3-----------------------------------------------------

e---------------------5-------------------------------10-----------
b---------------------7-------------------------------10-----------
g---------------------7---------14-----------12-------11-----------
d-------7--------5----7-------14--14-------12--12-----12-----------
a-----7---7----5-----------12------------10------------------------
e---5--------3-----------------------------------------------------

e------------------------------------------------------------------
b------------------------------------------------------------------
g---------------77----------------7--------------------------------
d---777---555---77----777---555---7-------X4-----------------------
a---777---555---55----777---555---5--------------------------------
e---555---333---------555---333------------------------------------
Verse:
e----5555--3333--555-----5555--3333--101010------------------------
b----5555--3333--777-----5555--3333--101010------------------------
g----6666--4444--777-----6666--4444--111111------------------------
d----7777--5555--777-----7777--5555--121212------------------------
a------------------------------------------------------------------
e------------------------------------------------------------------
Pre Chorus:
e------------------------------------------------------------------
b------------------------------------------------------------------
g------------------------------------------------------------------
d------------------------------------------------------------------
a-2-2-/-5-/-10-9-10-9-10-9-10-9------------------------------------
e------------------------------------------------------------------

e------------------------------------------------------------------
b------------------------------------------------------------------
g------------------------------------------------------------------
d------------------------------------------------------------------
a-2-2-/-5-/-8-7-8-7-8-7-8-7----------------------------------------
e------------------------------------------------------------------

Chorus:
e--1010--88--3333--------------------------------------------------
b--1010--88--3333--------------------------------------------------
g--1111--99--4444--------X4----------------------------------------
d--1212--10--5555--------------------------------------------------
a------------------------------------------------------------------
e------------------------------------------------------------------










Bridge:
e------------------------------------------------------------------
b------------------------------------------------------------------
g-----------------------------7--5-------------------------------
d--44--4-3----55--5-4------7--7--5--5-----------X3-----------------
a--44-----4---55-----5-----7--5--3--5------------------------------
e--22---------33-----------5--------3------------------------------



e------------------------------------------------------------------
b------------------------------------------------------------------
g--7-/-6---------5-/-4---------------------------------------------
d--7-/-6--7-/-6--5-/-4--3-/-4--2-/-3-/-4----X3---------------------
a--5-/-4--7-/-6--3-/-2--3-/-4--2-/-3-/-4---------------------------
e---------5-/-4---------1-/-2--0-/-1-/-2---------------------------


e----------------------------------14-----15-----------------------
b------------------------------------15-15-------------------------
g--7-/-6-----------------------------------------------------------
d--7-/-6--7-/-6-/-5~~~---------------------------------------------
a--5-/-4--7-/-6-/-5~~~---------------------------------------------
e---------5-/-4-/-3~~~---------------------------------------------


e-1010-8-8--3333--------10---8---3----1212-1010-5555---------------
b-1010-8-8--3333--X4----10---8---3----1212-1010-5555-----X3--------
g-1111-9-9--4444--------11---9---4----1313-1111-6666---------------
d-1212 1010-5555--------12---10--5----1414-1212-7777---------------
a------------------------------------------------------------------
e------------------------------------------------------------------

Final:
e--------------------------------555-333-55------------------------
b--------------------------------555-333-77------------------------
g-555--777--999--777-------------666-444-77------------------------
d-555--777--999--777-----X4------777-555-77------------------------
a-333--555--777--555-----------------------------------------------


Important: The song above is NOT stored on the Chordie server. The original song is hosted at www.xguitar.com. Chordie works as a search engine and provides on-the-fly formatting. Chordie does not index songs against artists'/composers' will. To remove this song please click here.

This song is displayed as text-only. Transposing and tuning is only available for chordpro-songs.

Login - add to songbook

Rating click stars to rate

Layout
Accuracy

SHARE PAGE  




You need to log in to post comments