Guitar Tabs, Chords and Lyrics


Talkin' Bout a Revolution    Reel Big Fish



Reel Big Fish
Talkin' bout a revolution
Cd: We're not happy 'Til your not happy
Standart tuning

(intro)
e--------------------------------------|
b--------------------------------------|
g--------------------------------------|
d--------3-----------------------------|
a-----------1--1\5--5---3--0----0------|
e---1-1-----------------------3--------|

e--------------------------|
b--------------------------|
g--------------------------|
d--------3-----------------|
a-----------1--1\3---------|
e---1-1--------------3-1---|

I think the verse and the chorus is the same thing cause it's hard to hear the guitar. But that look to something like this.
(verse)
e-------------------------------|
b-------------------------------|
g----------3--3---7--7---5--5---|
d---3--3---3--3---7--7---5--5---|
a---3--3---1--1---5--5---3--3---|
e---1--1------------------------|

(chorus)
e-------------------------------|
b-------------------------------|
g----------3--3---7--7---5--5---|
d---3--3---3--3---7--7---5--5---|
a---3--3---1--1---5--5---3--3---|
e---1--1------------------------|

And he begin the second verse with this.
e-----------------|
b-----------------|
g---7--7---5--5---|
d---7--7---5--5---|
a---5--5---3--3---|
e-----------------|

He do the verse one time and after he do this.
e----------------------|
b----------------------|
g-------3---7---5--5---|
d---3---3---7---5--5---|
a---3---1---5---3--3---|
e---1------------------|

And he go with the verse and the chorus after.
(verse)
e-------------------------------|
b-------------------------------|
g----------3--3---7--7---5--5---|
d---3--3---3--3---7--7---5--5---|
a---3--3---1--1---5--5---3--3---|
e---1--1------------------------|

(interlude)
e--------------------------------------|
b--------------------------------------|
g--------------------------------------|
d--------3-----------------------------|
a-----------1--1\5--5---3--0----0------|
e---1-1-----------------------3--------|

e--------------------------|
b--------------------------|
g--------------------------|
d--------3-----------------|
a-----------1--1\3---------|
e---1-1--------------3-1---|

When he go with the verse a second guitar come in the song.
(verse)
(gtr 1)
e-------------------------------|
b-------------------------------|
g----------3--3---7--7---5--5---|
d---3--3---3--3---7--7---5--5---|
a---3--3---1--1---5--5---3--3---|
e---1--1------------------------|

(gtr 2)
e---17-17-17--13---|x2
b------------------|
g------------------|
d------------------|
a------------------|
e------------------|

The chorus go on.
(chorus)
(gtr 1)
e-------------------------------|
b-------------------------------|
g----------3--3---7--7---5--5---|
d---3--3---3--3---7--7---5--5---|
a---3--3---1--1---5--5---3--3---|
e---1--1------------------------|

And the secong gtr. play with the chorus.
(gtr 2)
e---17-17-17--13---|x2 |---6-6--5-5-5--------------|
b------------------|   |--------------6\8--8-8-6---|
g------------------|   |---------------------------|
d------------------|   |---------------------------|
a------------------|   |---------------------------|
e------------------|   |---------------------------|

(gtr 2)
e---6--5--6\8-----13----13----------6--5--6\5-----------|
b--------------------13------13----------------6\8--6---|
g-------------------------------------------------------|
d-------------------------------------------------------|
a-------------------------------------------------------|
e-------------------------------------------------------|

(gtr 2)
e--------------------------------------------------|
b--------------------------------------------------|
g---3-2-3-2-3\5-----------0-3\2--------------------|
d-------------------3-3-3-------3------------------|
a-----------------------------------------1--0-----|
e-------------------------------------1\3------1---|

End of the second gtr.
(gtr 2)
e---17-17-17--13---|
b------------------|
g------------------|
d------------------|
a------------------|
e------------------|

End on
(verse)
e-------------------------------|
b-------------------------------|
g----------3--3---7--7---5--5---|
d---3--3---3--3---7--7---5--5---|
a---3--3---1--1---5--5---3--3---|
e---1--1------------------------|

Have fun to play this song.



Important: The song above is NOT stored on the Chordie server. The original song is hosted at www.xguitar.com. Chordie works as a search engine and provides on-the-fly formatting. Chordie does not index songs against artists'/composers' will. To remove this song please click here.

This song is displayed as text-only. Transposing and tuning is only available for chordpro-songs.

Login - add to songbook

Rating click stars to rate

Layout
Accuracy

SHARE PAGE  




You need to log in to post comments